Oops, an error
Loading. Please wait.

Heart And Soul Tab

version 1
version 1

Whole song

Interactive

12,403 views 24 this week
no commentswrite comment
1 2 3 4 5
x 5
add to favorites
launch autoscroll
font size
0
reset
how to read this tab
guitar tuner
Autoscroll
slow
fast
+/-
esc
set tempo
stop
Difficulty
intermediate
I saw a tab on this one and it wasn't close so I took a crack at it. It repeats quite a 
the break in the middle is pretty easy to figure out based on what I've shown you. I 
try and post later if need be or you can email me @mmetzger32@yahoo.com


Intro:
E|--5-5-5-5--5—5S3--3-3-|--5-5-5-5--5—5S3--3-3—|--5-5-5-5--5—5S3--3-3-|-2---|
B|--7-7-7-7--7-7s5--5-5-|--7-7-7-7--7-7s5--5-5-|--7-7-7-7--7-7s5--5-5-|-3---|
G|--6-6-6-6—-6-6s4--4-4-|--6-6-6-6—-6-6s4--4-4-|--6-6-6-6—-6-6s4--4-4-|-2---|
D|--7-7-7-7--7-7s5--5-5-|--7-7-7-7--7-7s5--5-5-|--7-7-7-7--7-7s5--5-5-|-0---|
A|--0-0-0-0--0-0-0--0-0-|--0-0-0-0--0-0-0--0-0-|--0-0-0-0--0-0-0--0-0-|-0---|
E|---------------------------------------------|----------------------|-----|

Verse:
E|--5-5-5-5--5—5S3--3-3-|--5-5-5-5--5—5S3--3-3—|--5-5-5-5--5—5S3--3-3-|
B|--7-7-7-7--7-7s5--5-5-|--7-7-7-7--7-7s5--5-5-|--7-7-7-7--7-7s5--5-5-|
G|--6-6-6-6—-6-6s4--4-4-|--6-6-6-6—-6-6s4--4-4-|--6-6-6-6—-6-6s4--4-4-|
D|--7-7-7-7--7-7s5--5-5-|--7-7-7-7--7-7s5--5-5-|--7-7-7-7--7-7s5--5-5-|
A|--0-0-0-0--0-0-0--0-0-|--0-0-0-0--0-0-0--0-0-|--0-0-0-0--0-0-0--0-0-|
E|---------------------------------------------|----------------------|

E|-3----------3---------|-3----------3---------|
B|-3----------3---------|-3----------3---------|
G|-0----------2---------|-0----------2---------|
D|-0----------0---------|-0----------0---------|
A|-2----------0---------|-2----------0---------|
E|-3--------------------|-3--------------------|

CHORUS:
E|---------------3---3--|
B|---2-2-2-2-----3---3--|
G|-0h2-2-2-2-2p0-0---0--|
D|-0h2-2-2-2—2p0-0---0--|
A|-0-0-0-0-0-0-0-2---2--|
E|---------------3---3--|
Suggest correction
comments
print report bad tab
guest
You may want to rate the tab now too:
select rating
Wanna post a correction for this tab? Suggest correction