Oops, an error
Loading. Please wait.

Heart And Soul Tab

version 1
version 1

Whole song

Interactive

7,454 views 27 this week
no commentswrite comment
1 2 3 4 5
3 more votes to show rating
add to favorites
launch autoscroll
font size
0
reset
how to read this tab
guitar tuner
Autoscroll
slow
fast
+/-
esc
set tempo
stop
Help us to improve Ultimate-Guitar.com Take our survey!
×
Author
Tabbed By : James Ryan
http://world-according-to-jim.blogspot.com/

Tuning: Standard

Intro/After Chorus
|----------5---5---5--5-5-5-5-5-5---3--3----3---3-3-3-3-3-3-| |---2---------2------|
|----------7---7---7--7-7-7-7-7-7---5--5----5---5-5-5-5-5-5-| |---3---------3------|
|----------6---6---6--6-6-6-6-6-6---4--4----4---4-4-4-4-4-4-| |---2---------2------|
|-----------------------------------------------------------| |--------------------|
|-----------------------------------------------------------| |--------------------|
|-----------------------------------------------------------| |--------------------|

Verse
|----------5---5---5--5-5-5-5-5-5---3--3----3---3-3-3-3-3-3-| |---3---------2------|
|----------7---7---7--7-7-7-7-7-7---5--5----5---5-5-5-5-5-5-| |---3---------3------|
|----------6---6---6--6-6-6-6-6-6---4--4----4---4-4-4-4-4-4-| |---0---------0------|
|-----------------------------------------------------------| |--------------------|
|-----------------------------------------------------------| |--------------------|
|-----------------------------------------------------------| |--------------------|

Chorus
|---------------||-----------------------------------------------------------------------|
|---------------||-----------------------------------------------------------------------|
|---------------||-----------------------------------------------------------------------|
|-5-5-5-5-5-5-5-||-7-7--7-7--7--7\5--5-5---5---7-7--7-7--7--7\5--5--5----5-7-7--7-7--7\--|
|-5-5-5-5-5-5-5-||-7-7--7-7--7--7\5--5-5---5---7-7--7-7--7--7\5--5--5----5-7-7--7-7--7\--|
|-3-3-3-3-3-3-3-||-5-5--5-5--5--5\3--3-3---3---5-5--5-5--5--5\3--3--3----3-5-5--5-5--5\--|

Bridge
|-----------------------------------|
|-----------------------------------|
|---------9----------11-10-9--9-----|
|--7-11-7---11-10-9-----------------|
|-----------------------------------|
|-----------------------------------|

Lead part/Outro
|---------------------------------------------------------------------------------|
|---------------------------------------------------------------------------------|
|----2---2---2---2---0--------------------2---2---2---2---0-----------------------|
|-----------------------4--2---0------------------------------4--5----5-\---------|
|-----------------------------------2/4-------------------------------------------|
|---------------------------------------------------------------------------------|
Suggest correction
Give kudos to tab author, rate the tab!
1 2 3 4 5
comments
print report bad tab
guest
You may want to rate the tab now too:
select rating
Wanna post a correction for this tab? Suggest correction