Oops, an error
Loading. Please wait.

Heart And Soul Tab

version 2
version 2

Whole song

Interactive

4,372 views 3 this week
no commentswrite comment
1 2 3 4 5
1 last vote to show rating
add to favorites
launch autoscroll
font size
0
reset
how to read this tab
guitar tuner
Autoscroll
slow
fast
+/-
esc
set tempo
stop
Author
Tuning
E A D G B E
Author/Artist: Huey Lewis & The News
Title: Heart And Soul

Standard Tuning


e|-5--5--5--5-5-5-5-5-5-5--3----3---3--3-3-3-3-3-3--|
B|-7--7--7--7-7-7-7-7-7-7--5----5---5--5-5-5-5-5-5--|
G|----------------------------x---x-----------------|
D|----------------------------x---x-----------------|
A|--------------------------------------------------|
E|--------------------------------------------------|

  Intro/Verse


e|-----------------|-------------------------|
B|-----------------|-------------------------|
G|-----------------|-------------------------|
D|-----------------|-------------------------|
A|-5-----5-5-5-5-5-|-7-7--7-7--7--7-5--5---5-|
E|-3-----3-3-3-3-3-|-5-5--5-5--5--5-3--3---3-|

  Pre-chorus         Chorus


e|----------------------------------|
B|----------------------------------|
G|----------------------------------|
D|----------------------------------|
A|----16----19-16-15-14---21-20-19--|
E|-17----17-------------------------|

  Interlude 1


e|-----------------------------|
B|-----------------------------|
G|-2--2--2--2----------------2-|
D|-2--2--2--2------------------|
A|-------------10-9-7--5-2/4---|
E|-----------------------------|
   m  m  m  m

  Interlude 2


********************

x  percussive notes
m  palm mute
/  slide up

********************
Suggest correction
Give kudos to tab author, rate the tab!
1 2 3 4 5
comments
print report bad tab
guest
You may want to rate the tab now too:
select rating
Wanna post a correction for this tab? Suggest correction