Oops, an error
Loading. Please wait.

Hip To Be Square Tab

5,347 views 6 this week
1 commentread comment
1 2 3 4 5
2 more votes to show rating
add to favorites
launch autoscroll
font size
0
reset
how to read this tab
guitar tuner
Autoscroll
slow
fast
+/-
esc
set tempo
stop
Help us to improve Ultimate-Guitar.com Take our survey!
×
Author
Difficulty
novice
    >Tab by DenBeste01<

This is the main riff of the song. I was driven crazy by not being able to find the song 
the internet, so I figured it out by myself. Enjoy.

  e|--------------|--------------|:R:
  B|--------------|--------------|:E:
  G|--------------|--------------|:P:
  D|--------2-----|--------------|:E:
  A|--0-2-5-------|--------------|:A:
  E|----------0-0-|4-4-4/5/4/5---|:T:

If you know how the song continues or got other quesions mail me at: Emilvef@gmail.com
Suggest correction
Give kudos to tab author, rate the tab!
1 2 3 4 5
comments
print report bad tab
1 comment total.
0 reply
shipon7 71 Sep 08, 2014 05:41 PM

e|--------------|
B|--------------|
G|--------------|
D|------0-2-----|
A|--0-2---------|
E|----------0-0-|

guest
You may want to rate the tab now too:
select rating
Wanna post a correction for this tab? Suggest correction