Oops, an error
Loading. Please wait.

I Never Walk Alone Chords

22 views 1 this week
no commentswrite comment
1 2 3 4 5
3 more votes to show rating
add to favorites
launch autoscroll
font size
0
reset
transpose
0
reset
simplify chords
display chords
guitar tuner
×
Best way to learn
"I Never Walk Alone"
Autoscroll
slow
fast
+/-
esc
set tempo
stop
Author
Difficulty
About this tab version
"I Never Walk Alone" chords from Fore. made famous by Huey Lewis and The News in 1986. The ending is taken from a live. Link at the end of the tab. Was this info helpful? Yes No
Strumming Is this strumming pattern correct? Yes No
120 bpm
1
&
2
&
3
&
4
&
Listen
Tab written by Michele Krnjak


[Piano Intro]

e |----------------------------|-------------------------|
B |--------9-----------10-9----|-----------9--10-7-----9-|
G |--------9-----------9--9----|-----------9--9--8-----9-|
D |--------9-----------11-9----|-----------9--11-9-----9-|
A |----------------------------|-------------------------|
E |----------------------------|-------------------------|


----------------------------|----------------------------|
-----------------------9----|--10-10----9-----7-----9----|
--------------9--9--11------|--9--9-----9-----8-----9----|
-----------9----------------|--11-11----9-----9-----9----|
----------------------------|----------------------------|
----------------------------|----------------------------|
                                                                         x2

----------------------------|----------------------------|
--------9-----------10-9----|-----------9--10-7--7--9----|
--------9-----------9--9----|-----------9--9--8--8--9----|
--------9-----------11-9----|-----------9--11-9--9--9----|
----------------------------|----------------------------|
----------------------------|----------------------------|


----------------------------|----------------------------|
-----------------------9----|--10-10----9-----7-----9----|
--------------9--9--11------|--9--9-----9-----8-----9----|
-----------9----------------|--11-11----9-----9-----9----|
----------------------------|----------------------------|
----------------------------|----------------------------|



[Verse]

E
Well, I remember my own neighborhood
E/G#     A           B
Everyone there, well they understood
E
You could wind up stranded in the lost and found
       E/G#         A               B
So you better stick together if you want to stick around
C#m
Me and the boys got our own little plan
A
Somebody out there well they'll understand
F#m                E/G#         A           B
And we'll have the world in the palm of our hand

[Chorus]

E   A   B    E     A   B
I never walk alone
E   A   B    C#m    B B B
I never walk alone

[Verse]

E
It ain't what you've got it's who you know
E/G#         A       B
We take that with us wherever we go
E
We stick together and we have our fun
               E/G#       A    B 
You know we're taking our days one by one
C#m
And when there's trouble in my face
A
I'm a tired runner in the human race
F#m         E/G#      A        B
I gotta get back to a familiar face

[Chorus]


E   A   B    E     A   B
I never walk alone
E   A   B    E     A   B
I never walk alone
E   A   B             E     A   B
I'm taking care of my own
E   A   B    C#m    B B B
I never walk alone


N.C.[Intro]


[Chorus]

E   A   B    E     A   B
I never walk alone
E   A   B    E     A   B
I never walk alone
E   A   B    E     A   B
I'm taking care of my own
E       A   B        E     A   B
And I never walk alone (I never walk alone)
E   A   B    E                                  A   B
I never walk alone (We stick together and we're having our fun)
E   A   B    E                               A      B
I never walk alone (So we're taking our days one by one)
E   A      B          E                         A   B
I'm taking care of my own (Taking care of my own)
E   A   B               E     A   B
And I never walk alone (I never walk alone)

[Instrumental]
E    A   B
E    A   B
E    A   B
E    A...single notes: A G# A A# B A# B C#
E E

You can hear the end of the song in the live version on youtube at this link:
https://www.youtube.com/watch?v=evvpTsP2fA4

You could do the piano riff as well. Here's the tab

Suggest correction
Give kudos to tab author, rate the tab!
1 2 3 4 5
comments
print report bad tab
guest
You may want to rate the tab now too:
select rating
Wanna post a correction for this tab? Suggest correction