Oops, an error
Loading. Please wait.

Power Of Love Bass Tab

version 4
version 4

Whole song

Interactive

91 views 18 this week
no commentswrite comment
1 2 3 4 5
3 more votes to show rating
add to favorites
launch autoscroll
font size
0
reset
guitar tuner
Autoscroll
slow
fast
+/-
esc
set tempo
stop
Help us to improve Ultimate-Guitar.com Take our survey!
×
Author
Difficulty
intermediate
About this tab version
Full studio version with fills. Was this info helpful? Yes No
Intro:
G|-----------------|-----------------|-----------------|-----------------|
D|-----------------|-----------------|-----------------|-----------------|
A|-3-3-3-----------|-------------2-2-|-3-3-3-----------|-------------2-2-|
E|-------0-0-0-0-0-|-1-1-1-3-3-3-----|-------0-0-0-0-0-|-1-1-1-3-3-3-----|

G|-----------------|-----------------|
D|-----------------|-----------------|
A|-3-3-3-----------|-----------------|
E|-------0-0-0-0-0-|-1-1-1-3-3-------|

Verse:
G|---5-3-5--------|-----------------|---5-3-5--------|-----------------|
D|---------1--1-3-|---3--3---3---5--|---------1--1-3-|---3--3----------|
A|-3--------------|-----------------|-3--------------|-----------------|
E|----------------|--------1---3----|----------------|--------1---3----|

G|---5-3-5--------|-----------------|---5-3-5--------|-----------------|
D|---------1--1-3-|---3--3---3---5--|---------1--1-3-|---3--3---3------|
A|-3--------------|-----------------|-3--------------|-----------------|
E|----------------|--------1---3----|----------------|--------1---3----|

G|---5-3-5--------|-----------------|---5-3-5--------|-----------------|
D|---------1--1-3-|---3--3---3---5--|---------1--1-3-|---3--3----------|
A|-3--------------|-----------------|-3--------------|--------1--------|
E|----------------|--------1---3----|----------------|------------1----|

G|---5-3-5--------|-----------------|---5-3-5--------|-----------------|
D|---------1--1-3-|---3--3---3---5--|---------1--1-3-|---3--3---3---5--|
A|-3--------------|-----------------|-3--------------|-----------------|
E|----------------|--------1---3----|----------------|--------1---3----|

G|---5-3-5--------|-----------------|---5-3-5--------|-----------------|
D|---------1--1-3-|---3--3---3------|---------1--1-3-|---3--3---3---5--|
A|-3--------------|-----------------|-3--------------|-----------------|
E|----------------|--------1---3----|----------------|--------1---3----|

G|---5-3-5--------|-----------------|
D|---------1--1-3-|---3--3----------|
A|-3--------------|-----------------|
E|----------------|--------1-1-3-3--|

Chorus:
G|-----------------|-----------------|-----------------|-----------------|
D|-----------------|-----------------|-----------------|-----------------|
A|-3-3-3-----------|-------------2-2-|-3-3-3-----------|---------------0-|
E|-------0-0-0-0-0-|-1-1-1-3-3-3-----|-------0-0-0-0-0-|-1-1-1-3-3-3-3---|

G|-----------------|-----------------|-----------------|-----------------|
D|-----------------|-----------------|-----------------|-----------------|
A|-3-3-3-----------|-------------2-2-|-1-1-1-1---------|-----------------|
E|-------0-0-0-0-0-|-1-1-1-3-3-3-----|---------1-1-1-1-|-3-3-3-3-3-3-3-3-|

G|-----------------|
D|-5---------------|
A|---------------1-|
E|-----------------|

Verse:
G|---5-3-5--------|-----------------|---5-3-5--------|-----------------|
D|---------1--1-3-|---3--3---3---5--|---------1--1-3-|---3--3----------|
A|-3--------------|-----------------|-3--------------|-----------------|
E|----------------|--------1---3----|----------------|--------1---3----|

G|---5-3-5--------|-----------------|---5-3-5--------|-----------------|
D|---------1--1-3-|---3--3---3---5--|---------1--1-3-|---3--3---3------|
A|-3--------------|-----------------|-3--------------|-----------------|
E|----------------|--------1---3----|----------------|--------1---3----|

G|---5-3-5--------|-----------------|---5-3-5--------|-----------------|
D|---------1--1-3-|---3--3---3---5--|---------1--1-3-|---3--3----------|
A|-3--------------|-----------------|-3--------------|-----------------|
E|----------------|--------1---3----|----------------|--------1-1-3-3--|

Chorus:
G|-----------------|-----------------|-----------------|-----------------|
D|-----------------|-----------------|-----------------|-----------------|
A|-3-3-3-----------|-------------2-2-|-3-3-3-----------|---------------0-|
E|-------0-0-0-0-0-|-1-1-1-3-3-3-----|-------0-0-0-0-0-|-1-1-1-3-3-3-3---|

G|-----------------|-----------------|-----------------|-----------------|
D|-----------------|-----------------|-----------------|-----------------|
A|-3-3-3-----------|-------------2-2-|-1-1-1-1---------|-----------------|
E|-------0-0-0-0-0-|-1-1-1-3-3-3-----|---------1-1-1-1-|-3-3-3-3-3-3-3-3-|

Bridge:
G|-----------------|-----------------|-----------------|-----------------|
D|-----------------|-----------------|-----------------|-----------------|
A|-6-6-6-6-6-6-6-6-|-5-5-5-5-5-5-5-5-|-3-3-3-3-3-3-3-3-|-----------------|
E|-----------------|-----------------|-----------------|-1-1-1-1-1-1-1-1-|

G|-----------------|-----------------|-----------------|-----------------|
D|-----------------|-----------------|-----------------|-----------------|
A|-----------------|-----------------|-----------------|-----------------|
E|-4-4-4-4-4-4-4-4-|-3-3-3-3-3-3-3-3-|-1-1-1-1-1-1-1-1-|-3-3-3-3-3-3-3-3-|

G|-----------------|-----------------|-----------------|
D|-----------------|-----------------|-5---------------|
A|-----------------|-----------------|---------------1-|
E|-4-4-4-4-4-4-4-4-|-3---3---3---3---|-----------------|

Verse:
G|---5-3-5--------|-----------------|---5-3-5--------|-----------------|
D|---------1--1-3-|---3--3---3---5--|---------1--1-3-|---3--3---3---5--|
A|-3--------------|-----------------|-3--------------|-----------------| x7
E|----------------|--------1---3----|----------------|--------1---3----|

G|---5-3-5--------|-----------------|
D|---------1--1-3-|---3--3----------|
A|-3--------------|-----------------|
E|----------------|--------1-1-3-3--|

Chorus: Repeat to fade
G|-----------------|-----------------|-----------------|-----------------|
D|-----------------|-----------------|-----------------|-----------------|
A|-3-3-3-----------|-------------2-2-|-3-3-3-----------|-------------2-2-|
E|-------0-0-0-0-0-|-1-1-1-3-3-3-----|-------0-0-0-0-0-|-1-1-1-3-3-3-----|
Suggest correction
Give kudos to tab author, rate the tab!
1 2 3 4 5
comments
print report bad tab
guest
You may want to rate the tab now too:
select rating
Wanna post a correction for this tab? Suggest correction