Oops, an error
Loading. Please wait.

The Power Of Love bass

version 1
version 1

Whole song

Interactive

27,538 views 15 this week
no commentswrite comment
1 2 3 4 5
x 4
add to favorites
×
Save as Personal and add changes to this tab that will be seen only by you. Learn more ›
×
You can save this tab as Personal to edit and correct it or add notes. All changes will be seen only by you. Learn more »
launch autoscroll
font size
0
reset
guitar tuner
edit
Autoscroll
slow
fast
+/-
esc
set tempo
stop
Author
[Intro] (x6)
G|-----------------------|
D|-----------------------|
A|-33--------------------| 
E|-----001133------------|

[Verse] (You'll be able to get it, its easy) (x11)
G|---------------------------------|
D|-1---------1---1-3-3-1-----------|
A|----3-1-3---3----------3---------|
E|---------------------------------|

[Chorus]
          (x6)           then this once
G|----------------|--------------------|
D|----------------|--------------------|
A|-33-------------|--2222--------------|
E|-----001133-----|------111133333333(3) <- Last note short

[Verse] (You'll be able to get it, its easy) (x6)
G|---------------------------------|
D|-1---------1---1-3-3-1-----------|
A|----3-1-3---3----------3---------|
E|---------------------------------|

[Chorus]
          (x6)           then this once
G|----------------|--------------------|
D|----------------|--------------------|
A|-33-------------|--2222--------------|
E|-----001133-----|------111133333333(3) <- Last note short

  
[Verse]
     They say that all in love is fair
G|-----------------------------------------------------|
D|-----------------------------------------------------|
A|-----------------------------------3-----------------|
E|-0-----------------3---------------------------------|
yeah, but you don't care

    But you know what to do
G|--------------------------------------------------|
D|--------------------------------------------------|
A|0-------------------------------------------------|
E|----------------0------3--------------------------|

      when it gets hold of you
G|-------------------------------------|
D|-------------------------------------|
A|-------------------------------------|
E|-1---------------0-------------------|
  
    and with a little help from above
G|--------------------------------------------------|
D|--------------------------------------------------|
A|--0-----------------------------------------------|
E|----------------------3---------------------------|

[Solo] (You'll be able to get it, its easy) (x11)
G|---------------------------------|
D|-1---------1---1-3-3-1-----------|
A|----3-1-3---3----------3---------|
E|---------------------------------|

[Outro] (Until End)
G|-----------------|
D|-----------------|
A|-33--------------|
E|-----001133------|

            
            
Suggest correction
Creating personal tab
Creating personal tab
You can edit any tab online and save it as your Personal.

You can edit, replace or remove any tab part or add personal notes – all changes will be seen only by you.

Personal tabs can be accessed anytime from any device, even offline.
Learn more »
comments
print report bad tab
guest
You may want to rate the tab now too:
select rating
Wanna post a correction for this tab? Suggest correction