Oops, an error
Loading. Please wait.

Time Aint Money Tab

19 views 1 this week
no commentswrite comment
1 2 3 4 5
3 more votes to show rating
add to favorites
launch autoscroll
font size
0
reset
how to read this tab
guitar tuner
Autoscroll
slow
fast
+/-
esc
set tempo
stop
Help us to improve Ultimate-Guitar.com Take our survey!
×
Author
Difficulty
intermediate
About this tab version
Intro tab for time ain't money. Was this info helpful? Yes No
Time Ain't Money - Huey Lewis and the News
(J. Colla/H. Lewis)

[Intro]

e|----------------------------|----------------------------|
B|----------------------------|----------------------------|
G|----------------------------|--5-----4-----2-------------|
D|-----------------------0----|--5-----4-----2--1h-0-------|
A|-----------------0h-2-------|-----------------------3h---|
E|----------------------------|----------------------------|

e|----------------------------|----------------------------|
B|----------------------------|----------------------------|
G|-----2--------2-------------|--5-----4-----2-----4--2----|
D|-----2--------2--------0----|--5-----4-----2-----4--2----|
A|--4-----0--0-----0h-2-------|----------------------------|
E|----------------------------|----------------------------|

e|----------------------------|----------------------------|
B|-----3b----2----------------|----------------------------|
G|-----4b----2----------------|--5-----4-----2-------------|
D|-----------------------0----|--5-----4-----2--1h-0-------|
A|-----------------0h-2-------|-----------------------3h---|
E|----------------------------|----------------------------|

e|----------------------------|----------------------------|
B|----------------------------|----------------------------|
G|-----2--------2-------------|--5-----4-----2--4b----2L---|
D|-----2--------2--------0----|--5-----4-----2--4b----2L---|
A|--4-----0--0-----0h-2-------|----------------------------|
E|----------------------------|----------------------------|

e|--------------------2-------------------------------|
B|--------------------------5-------------------------|
G|--2-----4b----------------------4b----4h-2----------|
D|--2-----------------------------------------4-------|
A|----------------------------------------------------|
E|----------------------------------------------------|

e|----------------------------------------------------|-------||
B|----------------------------------------------------|-------||
G|--2-------------------------------------------------|--2----||
D|----------------------------------------------------|--2----||
A|-----------3h-4-----0-------------------------------|--0----||
E|--------------------------------0-----3-----4-------|-------||

************************************

| h  Hammer-on
| b  Bend

************************************
Suggest correction
Give kudos to tab author, rate the tab!
1 2 3 4 5
comments
print report bad tab
guest
You may want to rate the tab now too:
select rating
Wanna post a correction for this tab? Suggest correction