Oops, an error
Loading. Please wait.

Dinosaurio tab

11 views 1 this week
no commentswrite comment
1 2 3 4 5
3 more votes to show rating
add to favorites
×
Save as Personal and add changes to this tab that will be seen only by you. Learn more ›
×
You can save this tab as Personal to edit and correct it or add notes. All changes will be seen only by you. Learn more »
launch autoscroll
font size
0
reset
how to read this tab
guitar tuner
edit
Autoscroll
slow
fast
+/-
esc
set tempo
stop
C                      D*      Em   E7
algo que no va a volver a pasar
                  C
algo que ya sucedio
D*              Em-E7
algo inevitable mmmmmm


C      D*   Em   E7

C      D*    E*


                      De las manos mas bonitas que hayan visto mis hojos
             C            D*           Em
e-|--------0--------------0------------0----------------------|
B-|-----1-----0h1-------3----3------0------0------------------|
G-|----0-0--------2----2-2--4-4-------0---0-0-----------------|
D-|-------------------0------------2--------------------------|
A-|--3----------------------------2---------------------------|
E-|-----------------------------------------------------------|


                  y quienes son todos  (se repite otra vez esto)
           E7                   C
e-|--------------------------------------------------|
B-|------0---3-0-------------------------------------|
G-|-----1--------1-----------------------------------|
D-|----0---------------------------------------------|
A-|---2----------------------------------------------|
E-|--------------------------------------------------|

-----------------------------------------------
C

D*                   Em
De las manos mas bonitas
                            E7
que hayan visto mis hojos
               C
y quienes son todos
      D*
y que hay de malo
      Em                    E7
en evitar mucho tiempo solo

solo observando
C               D*            E* (PAUSA)
sola estetica de la belleza
-
----------------------------------------------
(aqui entran los acordes)

       C
Y ahora nadie
  D*
quiere acompañarme mmmm
  Em
al techo del mundo
  E7
el tamaño
  C         D*
lo grande, lo que desaparecio
 Em             E7
dejalo que ruede, que empuje
   C                 D*
y rasque la ilusion
   Em            E7
y habra la magia de la realidad
  C          D*
y me hubiera gustado conocer
        Em                   E7
a ese dinosaurio imparable   mounstropo
            C       D*
perdido en tiempos vertighinoso mmmm
Em           E7
como mi vida vertiginosa
   C           D*
y rapida como una montaña rusa
Em         E7
imparable  y aunque me
           C
desproporcione
           D*
interrumpido imponete
          Em
el dinosaurio solo lo tenemos
E7              C
inevitablemente en sus restos
  D*           Em
y en la mente, haciendo memoria
E7
justamente

C                        D*      Em    E7
Y algo que no va a volver a pasar
          C
algo que ya sucedio
D*              Em       E7
algo inevitable mmmmmm

C    D*   Em   E7

C    D*    E*

e-|--------0--------------0------------0-------
B-|-----1-----0h1-------3----3------0------0---
G-|----0-0--------2----2-2--4-4-------0---0-0--
D-|-------------------0------------2-----------
A-|--3----------------------------2------------
E-|--------------------------------------------

e-|---------------------------------------|
B-|----------0--3--0---------0----3--0----|
G-|---------1--------1------1----------1--|
D-|--------0---------------0--------------|
A-|-------2---------------2---------------|
E-|---------------------------------------|

e-|--------0---------------0---------X-------|
B-|-----1-----0h1-------3----3-3-----5-------|
G-|----0-0--------2----2-2----2------4-------|
D-|-------------------0--------------2-------|
A-|--3-------------------------------0-------|
E-|----------------------------------X-------|

Acordes

         D*    Em    E7    E*    C
e-|------0-----0-----0-----x-----0-------|
B-|------3-----0-----0-----5-----1-------|
G-|------2-----0-----1-----4-----0-------|
D-|------0-----2-----0-----2-----2-------|
A-|------x-----2-----2-----0-----3-------|
E-|------x-----0-----0-----x-----0-------|

            
            
Suggest correction
Creating personal tab
Creating personal tab
You can edit any tab online and save it as your Personal.

You can edit, replace or remove any tab part or add personal notes – all changes will be seen only by you.

Personal tabs can be accessed anytime from any device, even offline.
Learn more »
Give kudos to tab author, rate the tab!
1 2 3 4 5
comments
print report bad tab
guest
Wanna post a correction for this tab? Suggest correction