Oops, an error
Loading. Please wait.

Silueta Disolvente tab

17 views 1 this week
no commentswrite comment
1 2 3 4 5
3 more votes to show rating
add to favorites
×
Save as Personal and add changes to this tab that will be seen only by you. Learn more ›
×
You can save this tab as Personal to edit and correct it or add notes. All changes will be seen only by you. Learn more »
launch autoscroll
font size
0
reset
how to read this tab
guitar tuner
edit
Autoscroll
slow
fast
+/-
esc
set tempo
stop
saludos nuevamente a la banda de la cuerda¡¡¡

esta es una mas de las rolas de HugoGrob
y concediendo y respondiendo a la peticion
dejo esta transcripcion, debo mencionar que hay detalles
en esta transcripcion, pero se que
escuchando uds. la rola podran hacelos

En fin nuevamente les pido que voten la
transcripcion, y cualquier comentario, sugerencia
o critica envienla a gritaMX@

nuevamente visiten  o
en  o contactame por 

BYE-Gon------VERDE¡¡¡


  riff completed
e-|---------------------------------------------------------------------
B-|---0-----0------0-----0-----0-----0-------0----------------0--0--0--0-0-
G-|--2-2---2------2-2---0-0---2-2---2-------2-2---------------2--2--2--0-0-
D-|----------------------------------------------------------------------
A-|-0-----4----3-------3-----0-----4----3--------0----------0---4--3--3----
E-|-------------------------------------------------4--0--4---------------

   riff 0
e-|-----------------------------
B-|-- 0-----0----0--------------
G-|- 2-2---2----2-2-------------
D-|-----------------------------
A-|-0-----4----3----0---------0-
E-|-------------------4--0--4---

riff 0*
e-|-----------------
B-|-- 0-----0----0--
G-|- 2-2---2----2-2-
D-|-----------------
A-|-0-----4----3----
E-|-----------------

     riff 1
e-|-------------------
B-|--0---0--0--0--0-0-
G-|--2---2--2--2--0-0-
D-|-------------------
A-|-0---4--3--3-------
E-|-------------------

 riff2
e-|---------0----------------
B-|-- 0------0---3------3----
G-|- 2-2---2----2-2----0-0---
D-|-------------------------
A-|-0-----4----3-----3----
E-|------------------------

riff final
e-|------------------------------------------------------------
B-|---0-----0-------0-----0-----0-----0-------0-----------------
G-|--2-2---2-------2-2---0-0---2-2---2-------2-2----------------
D-|-------------------------------------------------------------
A-|-0-----4----3--------3-----0-----4----3--------0----------0-----
E-|-------------------------------------------------4--0--4-----


intro::.:

   riff complted
e-|--------------------------------------------------------------------
B-|--0-----0-------0-----0-----0-----0-------0----------------0--0--0--0-0
G-|-2-2---2-------2-2---0-0---2-2---2-------2-2---------------2--2--2--0-0
D-|-------------------------------------------------------------------
A-|0-----4----3--------3-----0-----4----3--------0----------0---4--3--3---
E-|------------------------------------------------4--0--4------------


riff 1

La fuerza que a mi me falta
esta en toda la debilidad que tu sientes
y ahora corres como diva
por el amor romantico que no esta muerto
  riff 0*
aunque hay que protegerse
  riff 1
contra su tenaz encanto
  riff 0*
pues es aquel que destila
  riff 1
maravillas con su extraordinario
poder de exitacion

riff 0

riff 1
tipa tipa tipa papati --->x2

 riff 0*                   riff 1
Esta letra es la diva que danza

Esta diva que danza es la letra garabato
 riff 0*                   riff 1
una musa en el medio de un emblema de atropina
como aquello que contradice
el posmodernismo de gran alcance
entre la armonia
del pasado y la vanguardia
del presente

riff 0

  riff 0*
con el capricho de este
  riff 0
si que el objeto mas claro
 riff 1
mmmm puede transmutarse en otra cosa
riff 0*
como un gris dibujo en tinta
riff 1
como un dibujo en tinta gris

riff 1
como un movimiento en el preambulo final de la noche

riff 1 --->x2

riff completed

riff 1
tipa tipa tipa papati --->x2

riff 0*
ahora tu abalanza
        riff 1
la recorres extrayendo esencia
que me hace soluble
en donde esta confusion
no continua con sonidos avanzantes
de caida contundente

riff 0*
y es aqui donde nace
riff 1
la chispa de arco voltaico
riff 0*
con los colores
            riff 1
de nuestra vida afectiva
alterando el fondo azul
de nuestros dias

riff 0*                      riff 1
y yo se que corres sobre superficies humedas
riff 0*
cuando al tratar de abrazarme
riff 1
te das cuenta de como lo que sientes
puede destruirme tanto
riff 1
y descubres como se disuelve mi silueta
             riff2
al fundirse con tu luz

riff 1
gracias por mostrarme
que es mas fuerte el peso del cariño
que el del tiempo
riff 1                   riff final
minuto a minuto papati   tipa tipa tipa papati

            
            
Suggest correction
Creating personal tab
Creating personal tab
You can edit any tab online and save it as your Personal.

You can edit, replace or remove any tab part or add personal notes – all changes will be seen only by you.

Personal tabs can be accessed anytime from any device, even offline.
Learn more »
Give kudos to tab author, rate the tab!
1 2 3 4 5
comments
print report bad tab
guest
Wanna post a correction for this tab? Suggest correction