Oops, an error
Loading. Please wait.

I Hate It Too tab

version 2
version 2

Whole song

by Hum
1,138 views 12 this week
1 commentread comment
1 2 3 4 5
x 3
add to favorites
×
Save as Personal and add changes to this tab that will be seen only by you. Learn more ›
×
You can save this tab as Personal to edit and correct it or add notes. All changes will be seen only by you. Learn more »
launch autoscroll
font size
0
reset
how to read this tab
guitar tuner
edit
Autoscroll
slow
fast
+/-
esc
set tempo
stop
HUM - I Hate It Too
Transcribed by FUDGEcenter
Tuning: D A D G B E


intro:
E|-----------------------|--------|
B|-------5--3--10-4--10-4|------3-|
G|-------6--4--11-5--11-6|------4-|
D|--4-4--4--2--9--4--9--4|-0-0--2-|
A|--4-4--4--2--9--4--9--4|-0-0--2-|
D|--4-4--4--2--9--4--9--4|-0-0--2-|
                         palm mute the 0s

second part of intro:
E|------------------------------------------------------7-7----7--7-7--0-0--0-0-------------7--7-7-----0-0-|
B|------------------------------------------------------7-7----7--7-7--0-0--0-0-----0-0-----7--7-7-----0-0-|
G|--7--------9/11-----0-2-----0-2----------4-4-4-2-2----7-7----7--7-7--6-6--6-6-----4-4-----7--7-7-----6-6-|
D|--x------7-x--------0-0-----0-0----------0-0-0-0-0--0-5-5-0--5--5-5--7-7--7-7--0--0-0--0--5--5-5--0--7-7-|
A|--5--7/9-0-0----0h2-2-2-0h2-2-2--0--4-4--4-4-4-4-4--0-5-5-0--5--5-5--5-5--5-5--0--5-5--0--5--5-5--0--5-5-|
D|--0-------------0h2-2-2-0h2-2-2--0--4-4--4-4-4-4-4--0-5-5-0--5--5-5--5-5--5-5--0--5-5--0--5--5-5--0--5-5-|


verses:
E|------------------|--------|
B|--5--3--10-4--10-4|------3-|
G|--6--4--11-5--11-6|------4-|
D|--4--2--9--4--9--4|-0-0--2-|
A|--4--2--9--4--9--4|-0-0--2-|
D|--4--2--9--4--9--4|-0-0--2-|
                    palm mute the 0s


Note: The chorus is from them playing live.. I can't tell which guitar is which in the 
album version.


Chorus: Matt's guitar left
E|-------------------------------------------------------------7-7-7--9-9-9-9-------------7-7-7------------|
B|-------------------------------------------------------------7-7-7----------7-----------7-7-7------------|
G|-7--------9/11---------2--------2--------4-4-4-2-2-----------7-7-7----------------------7-7-7--9-9-9-9---|
D|-x------7-------0pm-0pm--0pm-0pm----x-x--x-x-x-x-x--0-5-5-0--5-5-5-------------0-5-5-0--5-5-5----------7-|
A|-5--7/9---------0pm-0pm--0pm-0pm--0-4-4--4-4-4-4-4--0-5-5-0--5-5-5-------------0-5-5-0--5-5-5------------|
D|-0--------------0pm-0pm--0pm-0pm--0-4-4--4-4-4-4-4--0-5-5-0--5-5-5-------------0-5-5-0--5-5-5------------|

Chorus: Matt's guitar @3:41(just a minor change at the end)
E|-------------------------------------------------------------7-7-7--9-9-9-9-------------7-7-7--12-12-----|
B|-------------------------------------------------------------7-7-7----------7-----------7-7-7--------10--|
G|-7--------9/11---------2--------2--------4-4-4-2-2-----------7-7-7----------------------7-7-7------------|
D|-x------7-------0pm-0pm--0pm-0pm----x-x--x-x-x-x-x--0-5-5-0--5-5-5-------------0-5-5-0--5-5-5------------|
A|-5--7/9---------0pm-0pm--0pm-0pm--0-4-4--4-4-4-4-4--0-5-5-0--5-5-5-------------0-5-5-0--5-5-5------------|
D|-0--------------0pm-0pm--0pm-0pm--0-4-4--4-4-4-4-4--0-5-5-0--5-5-5-------------0-5-5-0--5-5-5------------|


Chorus: Tim's guitar right
E|---------------------------------------------------------7-7-7----------------------7-7-7------------|
B|---------------------------------------------------------7-7-7----------------------7-7-7------------|
G|-7--------9/11-------------------------------------------7-7-7--6-6-6-6-------------7-7-7--6-6-6-6---|
D|-x------7-------0pm-2-0pm-2-0pm-2-0pm--4444444--0-5-5-0--5-5-5----------5--0-5-5-0--5-5-5----------5-|
A|-5--7/9---------0pm-2-0pm-2-0pm-2-0pm--4444444--0-5-5-0--5-5-5-------------0-5-5-0--5-5-5------------|
D|-0--------------0pm-2-0pm-2-0pm-2-0pm--4444444--0-5-5-0--5-5-5-------------0-5-5-0--5-5-5------------|


Fades out in the end
E|-----------------------------|
B|----------3---------------3--|
G|----------4---------------4--|
D|-0pm-0pm--2--0pm-0pm-0pm--2--|
A|-0pm-0pm--2--0pm-0pm-0pm--2--|
D|-0pm-0pm--2--0pm-0pm-0pm--2--|


Guitars @5:00

left channel:
E|------------------------------|
B|-------10---10----------------|
G|-11-11----11---11-11-11-11-11-|
D|------------------------------|
A|------------------------------|
D|------------------------------|


middle channel: (Tim Lash picks these as open harmonics between the 12 and 13 frets)
E|--------------------------|
B|--------------12-12-12-12-|
G|--------12-12-------------|
D|--12-12-------------------|
A|--------------------------|
D|--------------------------|


right channel:
E|-------------------|
B|-14----------------|
G|----14-14\11/14\11-|
D|-------------------|
A|-------------------|
D|-------------------|

            
            
Suggest correction
Creating personal tab
Creating personal tab
You can edit any tab online and save it as your Personal.

You can edit, replace or remove any tab part or add personal notes – all changes will be seen only by you.

Personal tabs can be accessed anytime from any device, even offline.
Learn more »
Give kudos to tab author, rate the tab!
1 2 3 4 5
comments
print report bad tab
1 comment total.
0 reply
kdp123 10 Aug 20, 2015 08:59 AM

****ing legend.

guest
You may want to rate the tab now too:
select rating
Wanna post a correction for this tab? Suggest correction