Oops, an error
Loading. Please wait.

Stars Tab

version 1
version 1

Whole song

by Hum
11,606 views 12 this week
1 commentread comment
1 2 3 4 5
accurate
x 4
add to favorites
launch autoscroll
font size
0
reset
how to read this tab
guitar tuner
Tab Pro tools
  • play this tab
  • loop segment
  • change instrument
  • show fretboard
  • metronome
×
Best way to learn
"Stars"
Autoscroll
slow
fast
+/-
esc
set tempo
stop
Contributor
-----------------------------------------------------------------------
STARS by: HUM
-----------------------------------------------------------------------

Tabbed by: Scott Sommers (Cyclops)
Email: scott_sommers_Cyclops@hotmail.com

Tuning: Drop D

NOTES: An oldie, but with a lot of fun riffs. In addition, if played right,
with a full band, it sounds incredible. (It is the only good song they put out
in my opinion.)

STUMMING NOT INCLUDED, LISTEN TO THE SONG

INTRODUCTION

e|---7---|--7--|--2-|-------------------------------------------------|
B|---7---|--7--|--3-|-------------------------------------------------|
G|---7---|--7--|--2-|----REPEAT-TWICE---------------------------------|
D|---7---|--7--|--0-|-------------------------------------------------|
A|---0h5-|--4--|----|-------------------------------------------------|
E|---0h5-|--4--|----|-------------------------------------------------|

FILL            MAIN RIFF/VERSE

e|-----|-------|------------------------------------------------------|
B|-----|-------|------------------------------------------------------|
G|--11-|---9---|-11-S--23---------------------------------------------|
D|--x--|-------|-x--S--X----------------------------------------------|
A|--9--|-7---7-|-9--S--21---------------------------------------------|
E|-----|-------|------------------------------------------------------|

CHORUS

e|-7-|-7-|-PALM---|-7-|-7-|----------|--------------------------------|
B|-7-|-7-|-MUTE---|-7-|-7-|----------|--------------------------------|
G|-7-|-7-|--------|-7-|-7-|-11-S--23-|-REPEAT 3X, THEN 4TH TIME 24----|
D|-7-|-7-|-0-2-0--|-7-|-7-|-X--------|--------------------------------|
A|-5-|-4-|-0-2-0--|-5-|-4-|-9--------|--------------------------------|
E|-5-|-4-+-0-2-0--|-5-|-4-|----------|--------------------------------|

‘SOLO’ … PALM MUTE THE WHOLE TIME

e|--------------------------------------------------------------------|
B|--------------------------------------------------------------------|
G|--------------------------------------------------------------------|
D|--------------------------------------REPEAT AS NECESSARY-----------|
A|-----5-----------5-----------5-7------------------------------------|
E|-0-7---7-0-7-0-7---7-0-7-0-7----------------------------------------|

LEGEND
S – SLIDE
H - HAMMER
comments
print report bad tab
1 comment total.
+1 reply
mschristopher wrote on August 14 2010, 01:24 am

Here is the bridge 100% perfect:

A|------5-----------7-----------7—9-
D|--0-7---7—5—0—5-7---9—7—0—7—9-----

OR: D A D2 A G D G A E B A D A B E F#

Note: D2, E and F# are all played on A Sting (5th, 7th, and 9th frets respectively)

I want to post or [tab]
guest
You may want to rate the tab now too:
select rating
Please do not post tabs as comments. Select "correction" instead!