Oops, an error
Loading. Please wait.

Stars tab

version 3
version 3

Whole song

by Hum
25,731 views 66 this week
5 commentsread comments
1 2 3 4 5
x 6
add to favorites
×
Save as Personal and add changes to this tab that will be seen only by you. Learn more ›
×
You can save this tab as Personal to edit and correct it or add notes. All changes will be seen only by you. Learn more »
launch autoscroll
font size
0
reset
how to read this tab
guitar tuner
edit
Autoscroll
slow
fast
+/-
esc
set tempo
stop
Tuning: drop D

[Intro]      
E|-----------------2----|
B|-----------------3----|
G|-7-7-7-7-7-7-7-7-2----|
D|-7-7-7-7-7-7-7-7-0----| x4
A|-5-5-5-5-4-4-4-4-0----|
D|-5-5-5-5-4-4-4-4-0----|

(hit the distortion here on the 4th time and let it sustain)

[Clean guitar]
E|----------------(0)-----|
B|--------------------0---|
G|-11b12r11-11-11--9----0-|
D|-----------------0------|
A|-9-b10r9--9--9--(0)-----|
D|-0--------0--0----------|

[Distorted guitar]
E|------------------------------|
B|------------------------------|
G|-11b12r11-11-11--9--9---9--9--|
D|-----------------0--0---0--0--|
A|-9-b10r9--9--9---0--0---0--0--|
D|-0--------0--0----------------|

[Verse]
E|------------------------------|
B|------------------------------|
G|-11b12r11-11-11--9--9---9--9--|
D|-----------------0--0---0--0--|
A|-9-b10r9--9--9---0--0---0--0--|
D|-0--------0--0----------------|

[Chorus]
E|-----------------|
B|-----------------|
G|-7-7-7-7-7-7-7-7-|
D|-7-7-7-7-7-7-7-7-|
A|-5-5-5-5-4-4-4-4-|
D|-5-5-5-5-4-4-4-4-|

E|---------------------------------------------------------|
B|---------------------------------------------------------|
G|---------------------------------------------------------|
D|-0--0-0-2h4-0-0--0-0-2h4-0-0-0--0-0-2h4-0-0--0-0-2h4-2p0-|
A|-0--0-0-2h4-0-0--0-0-2h4-0-0-0--0-0-2h4-0-0--0-0-2h4-2p0-|
D|-0--0-0-2h4-0-0--0-0-2h4-0-0-0--0-0-2h4-0-0--0-0-2h4-2p0-|
  .  ...     ...  ...     .....  ...     ...  ...

E|-----------------|
B|-----------------|
G|-7-7-7-7-7-7-7-7-|
D|-7-7-7-7-7-7-7-7-|
A|-5-5-5-5-4-4-4-4-|
D|-5-5-5-5-4-4-4-4-|

[Bridge]                 
E|-----------------12-12--12-12-|
B|------------------------------|
G|-11b12r11-11-11--9--9---9--9--|
D|------------------------------| x3
A|-9-b10r9--9--9----------------|
D|-0--------0--0----------------|

E|-----------------17-17--17-17-|
B|-----------------17-17--17-17-|
G|-11b12r11-11-11--14-14--14-14-|
D|------------------------------|
A|-9-b10r9--9--9----------------|
D|-0--------0--0----------------|

[Verse]
E|------------------------------|
B|------------------------------|
G|-11b12r11-11-11--9--9---9--9--|
D|-----------------0--0---0--0--|
A|-9-b10r9--9--9---0--0---0--0--|
D|-0--------0--0----------------|

[Chorus]
E|-----------------|
B|-----------------|
G|-7-7-7-7-7-7-7-7-|
D|-7-7-7-7-7-7-7-7-|
A|-5-5-5-5-4-4-4-4-|
D|-5-5-5-5-4-4-4-4-|

E|---------------------------------------------------------|
B|---------------------------------------------------------|
G|---------------------------------------------------------|
D|-0--0-0-2h4-0-0--0-0-2h4-0-0-0--0-0-2h4-0-0--0-0-2h4-2p0-|
A|-0--0-0-2h4-0-0--0-0-2h4-0-0-0--0-0-2h4-0-0--0-0-2h4-2p0-|
D|-0--0-0-2h4-0-0--0-0-2h4-0-0-0--0-0-2h4-0-0--0-0-2h4-2p0-|
  .  ...     ...  ...     .....  ...     ...  ...

E|-----------------|
B|-----------------|
G|-7-7-7-7-7-7-7-7-|
D|-7-7-7-7-7-7-7-7-|
A|-5-5-5-5-4-4-4-4-|
D|-5-5-5-5-4-4-4-4-|

[Bridge]                  
E|-----------------12-12--12-12-|
B|------------------------------|
G|-11b12r11-11-11--9--9---9--9--|
D|------------------------------| x3
A|-9-b10r9--9--9----------------|
D|-0--------0--0----------------|

E|-----------------17-17--17-17-|
B|-----------------17-17--17-17-|
G|-11b12r11-11-11--14-14--14-14-|
D|------------------------------|
A|-9-b10r9--9--9----------------|
D|-0--------0--0----------------|

(play it twice
Then hit this and let it ring)

E|----------|
B|-3--------|
G|-2--------|
D|-0--------|
A|-0--------|
D|-0--------|

[Interlude]
E|---------------------------------|
B|---------------------------------|
G|---------------------------------|
D|-----0---------------------------|
A|---0---0---0---0-7-----------7/9-|
D|-5-------5---5-----9-7-9-7-9-----|
  ...   .........   .........

[Bridge]
E|-----------------12-12--12-12-|
B|------------------------------|
G|-11b12r11-11-11--9--9---9--9--|
D|------------------------------|
A|-9-b10r9--9--9----------------|
D|-0--------0--0----------------|
                        
E|-----------------17-17--17-17-|
B|-----------------17-17--17-17-|
G|-11b12r11-11-11--14-14--14-14-|
D|------------------------------|
A|-9-b10r9--9--9----------------|
D|-0--------0--0----------------|

[Chorus]
E|-----------------|
B|-----------------|
G|-7-7-7-7-7-7-7-7-|
D|-7-7-7-7-7-7-7-7-|
A|-5-5-5-5-4-4-4-4-|
D|-5-5-5-5-4-4-4-4-|

E|---------------------------------------------------------|
B|---------------------------------------------------------|
G|---------------------------------------------------------|
D|-0--0-0-2h4-0-0--0-0-2h4-0-0-0--0-0-2h4-0-0--0-0-2h4-2p0-|
A|-0--0-0-2h4-0-0--0-0-2h4-0-0-0--0-0-2h4-0-0--0-0-2h4-2p0-|
D|-0--0-0-2h4-0-0--0-0-2h4-0-0-0--0-0-2h4-0-0--0-0-2h4-2p0-|
  .  ...     ...  ...     .....  ...     ...  ...

E|-----------------|
B|-----------------|
G|-7-7-7-7-7-7-7-7-|
D|-7-7-7-7-7-7-7-7-|
A|-5-5-5-5-4-4-4-4-|
D|-5-5-5-5-4-4-4-4-|

[Bridge/outro]
E|-----------------12-12--12-12-|
B|------------------------------|
G|-11b12r11-11-11--9--9---9--9--|
D|------------------------------|
A|-9-b10r9--9--9----------------|
D|-0--------0--0----------------|
                        
E|-----------------17-17--17-17-|
B|-----------------17-17--17-17-|
G|-11b12r11-11-11--14-14--14-14-|
D|------------------------------|
A|-9-b10r9--9--9----------------|
D|-0--------0--0----------------|


************************************

| (n)  Ghost note
| r    Release
| b    Bend
| h    Hammer-on
| p    Pull-off
| .    paul nute
| /    Slide up

************************************

            
            
Suggest correction
Creating personal tab
Creating personal tab
You can edit any tab online and save it as your Personal.

You can edit, replace or remove any tab part or add personal notes – all changes will be seen only by you.

Personal tabs can be accessed anytime from any device, even offline.
Learn more »
comments
print report bad tab
5 comments total. Showing first comments.
+1 reply
Godsmackkid1113 15 Jul 31, 2009 09:23 AM

Perfect except for the solo, I'm pretty sure it's this:

e--------------------------------------------------------
B--------------------------------------------------------
G--------------------------------------------------------
D--------------------------------------------------------
A--------5-----------------7----------------------7-s-9--
D---5--7---7--5--7--5--7------9---7---9--7---9-----------
. . . . . . . . . . . .

0 reply
Godsmackkid1113 15 Jul 31, 2009 09:24 AM

It didn't space out my palm muting correctly....anyways, everything on the D string is palm muted, everything on A isn't

+1 reply
mschristopher 10 Aug 13, 2010 09:27 PM

Disregard the above attempts...

Here is the bridge 100% perfect:

A|------5-----------7-----------7—9-
D|--0-7---7—5—0—5-7---9—7—0—7—9-----

OR: D A D2 A G D G A E B A D A B E F#

Note: D2, E and F# are all played on A Sting (5th, 7th, and 9th frets respectively)

guest
You may want to rate the tab now too:
select rating
Wanna post a correction for this tab? Suggest correction