Oops, an error
Loading. Please wait.

Im Moving On intro tab

516 views 1 this week
no commentswrite comment
1 2 3 4 5
3 more votes to show rating
add to favorites
×
Save as Personal and add changes to this tab that will be seen only by you. Learn more ›
×
You can save this tab as Personal to edit and correct it or add notes. All changes will be seen only by you. Learn more »
launch autoscroll
font size
0
reset
how to read this tab
guitar tuner
edit
Autoscroll
slow
fast
+/-
esc
set tempo
stop
Difficulty
This is the intro, but it stays pretty constant throughout and you can figure out the 
parts and background stuff by messing around in the key. Here it goes, an absolutely 
song. Just set your amp to echo with a little tremolo and you're ready to play. Enjoy.

Intro:
Starts with a little Asus2 and Dsus2 (the positions also for the following notes)

Then it does this:

e|--------------------|
B|-------0-0-0--------|
G|-----2-------2-2----|  x4
D|---2----------------|
A|-0------------------|
E|--------------------|

|------------------------------------------------------------------------|
|------3-3---5-5---------------------------------------------------------|
|---2----------------|  x 4 Then add this to the end: B|--7-7--5-5s-3----|
|-0----------------------------------------------------------------------|
|------------------------------------------------------------------------|
|------------------------------------------------------------------------|

|--------------------|
|-------0-0-0--------|
|-----2-------2-2----|  x4
|---2----------------|
|-0------------------|
|--------------------|

Then the drums and bass come in, followed by the second guitar, but this part stays 
the same the whole song. Hope this gets you started and I hope someone takes this and makes 
to make it even better.

            
            
Suggest correction
Creating personal tab
Creating personal tab
You can edit any tab online and save it as your Personal.

You can edit, replace or remove any tab part or add personal notes – all changes will be seen only by you.

Personal tabs can be accessed anytime from any device, even offline.
Learn more »
Give kudos to tab author, rate the tab!
1 2 3 4 5
comments
print report bad tab
guest
Wanna post a correction for this tab? Suggest correction