Oops, an error
Loading. Please wait.

Out On A Wire bass

by Humanzi
127 views 1 this week
no commentswrite comment
1 2 3 4 5
2 more votes to show rating
add to favorites
×
Save as Personal and add changes to this tab that will be seen only by you. Learn more ›
×
You can save this tab as Personal to edit and correct it or add notes. All changes will be seen only by you. Learn more »
launch autoscroll
font size
0
reset
guitar tuner
edit
Autoscroll
slow
fast
+/-
esc
set tempo
stop
Author
Difficulty
Band: Humanzi

Song: Out On A Wire

Album: Tremors

Intro:
G:|---------------------------------------------------------------|
D:|7-7-6~~------------------------7-7-6-6-------------------------|
A:|--------7-7-7-7-7-7-7-7-7-7-7-7---------7-7-7-7-7-7-7-7-7-7-7-7|
E:|---------------------------------------------------------------|

G:|---------------------------------------------------------------|
D:|---------------------------------------------------------------|
A:|/9-9-9-9-4-4-4-4-4-4-4-4-4-4-4-4-/9-9-9-4-4-4-4-4-4-4-4-4-4-4-4|
E:|---------------------------------------------------------------|

Rest Of Song:
G:|---------------------------------------------------------------|
D:|7-7-6-6------------------------7-7-6-6-------------------------|
A:|--------7-7-7-7-7-7-7-7-7-7-7-7---------7-7-7-7-7-7-7-7-7-7-7-7|
E:|---------------------------------------------------------------|

G:|---------------------------------------------------------------|
D:|---------------------------------------------------------------|
A:|/9-9-9-9-4-4-4-4-4-4-4-4-4-4-4-4-/9-9-9-4-4-4-4-4-4-4-4-4-4-4-4|
E:|---------------------------------------------------------------|


thats about it. its pretty much the same for the whole song.
thanks for checkin out this tab.

if you have any suggestions contact me at  chewey92@hotmail.com

            
            
Suggest correction
Creating personal tab
Creating personal tab
You can edit any tab online and save it as your Personal.

You can edit, replace or remove any tab part or add personal notes – all changes will be seen only by you.

Personal tabs can be accessed anytime from any device, even offline.
Learn more »
Give kudos to tab author, rate the tab!
1 2 3 4 5
comments
print report bad tab
guest
You may want to rate the tab now too:
select rating
Wanna post a correction for this tab? Suggest correction