Oops, an error
Loading. Please wait.

30 Days In The Hole bass

version 2
version 2

Whole song

Interactive

262 views 18 this week
no commentswrite comment
1 2 3 4 5
2 more votes to show rating
add to favorites
×
Save as Personal and add changes to this tab that will be seen only by you. Learn more ›
×
You can save this tab as Personal to edit and correct it or add notes. All changes will be seen only by you. Learn more »
launch autoscroll
font size
0
reset
guitar tuner
edit
Autoscroll
slow
fast
+/-
esc
set tempo
stop
Author
Difficulty
30 DAYS IN THE HOLE (Bassline)

As recorded by Humble Pie
(From the 1972 Album SMOKIN')

Words and Music by Steve Marriott

Transcribed by Slowhand


Gtr I (E A D G) - 'Greg Ridley - Bass'


 Intro
  Q=120
 4/4
  Gtr I
  W          W          W          W          W
|----------|----------|----------|----------|------|
|----------|----------|----------|----------|------|
|----------|----------|----------|----------|------|
|----------|----------|----------|----------|------|


  W          W          W          W          W
|----------|----------|----------|----------|------|
|----------|----------|----------|----------|------|
|----------|----------|----------|----------|------|
|----------|----------|----------|----------|------|


  W          W          W          W          W
|----------|----------|----------|----------|------||
|----------|----------|----------|----------|------||
|----------|----------|----------|----------|------||
|----------|----------|----------|----------|------||


 1st Verse
  W          W          W          W
|----------|----------|----------|------|
|----------|----------|----------|------|
|----------|----------|----------|------|
|----------|----------|----------|------|


  W          W          W          E  E  E E  E E  E E
|----------|----------|----------|---11--------------9--|
|----------|----------|----------|------11-9-11-9-11----|
|----------|----------|----------|----------------------|
|----------|----------|----------|----------------------|


  Q.   Q  E Q    +E  E E E E E S S E   Q.   Q  E Q    +E   E  E E  E E  E E
|--------------|---------------------|--------------|-----11--------------9-|
|-7----7-------|-----6---7---8-----8-|-7----7-------|--------11-9-11-9-11---|
|---------7-7--|-(7)-------------7---|---------7-7--|-(7)-------------------|
|--------------|---------------------|--------------|-----------------------|


  Q.   E +Q.   E   E E E E E E Q    Q  Q  E E E E   +E  E E E   E  E  E  E
|----------------|----------------|---------------|-------9-9-/14-14-12-12--||
|-7------------6-|-7-7---7--------|---------------|-------------------------||
|------7-(7)-----|-----------7-7--|----5--5-5---7-|-(7)-7-------------------||
|----------------|----------------|---------------|-------------------------||


 Chorus
  E E E E E E E E   E E E E E E S S E   E E E E E E S S E   E E E E E E S S E
|-----------------|-7-----------------|-------------------|-7-----------------|
|-----------------|-------5-----------|-------------------|-------5-----------|
|-7-7---7-----5---|-----------7-----5-|-7-----5-----------|-----------7-----5-|
|-----------0---7-|---5-----------5---|---0-------7---0-5-|---5-----------5---|


  E E E E E E S S E   E E E E E E S S E   E E +H     Q    H.      Q
|-------------------|-7-----------------|---------------|---------9\---||
|-------------------|-------5-----------|---------------|--------------||
|-7-----5-----------|-----------7-----5-|-7-------------|--------------||
|---0-------7---0-5-|---5-----------5---|---0-(0)-------|--------------||


 2nd Verse
  Q.   Q  E Q    +E   E  E E  E E  E E   Q.   Q  E Q    +Q   a  E E E E  E E
|--------------|-----11--------------9-|--------------|-----------9-9--------|
|-7----7-------|--------11-9-11-9-11---|-7----7-------|------9s11-----9-11-9-|
|---------7-7--|-(7)-------------------|-----------7--|-(7)------------------|
|--------------|-----------------------|---------5----|----------------------|


  Q.   E +Q   E E   E E E E E E Q    Q  Q  E E E E   +Q.   E E E  E E
|-----------------|----------------|---------------|---------9---------|
|-7-----------5-6-|-7-7---7--------|----7--7-------|-------9---9-11-9--|
|------7-(7)------|-----------7-7--|---------5-6-7-|-(7)---------------|
|-----------------|----------------|---------------|-------------------|


  Q.   Q  E Q    +E   E  E E  E E  E E   Q.   Q  E Q    +E  S S E E E E  E E
|--------------|-----11--------------9-|--------------|-------9---9-9--------|
|-7----7-------|--------11-9-11-9-11---|-7----7-------|-----9---9-----9-11-9-|
|---------7-7--|-(7)-------------------|-----------7--|-(7)------------------|
|--------------|-----------------------|---------5----|----------------------|


  E E E E E E Q    E E E E E E Q    Q  Q  E E E E   +E. S E E  E E E E
|----------------|----------------|---------------|-------9-9-12-9-7-9--||
|-7-7------------|-7-7-7-7--------|---------------|---------------------||
|-------7---7-7--|-----------7-7--|----5--5-5---7-|-(7)-7---------------||
|----------------|----------------|---------------|---------------------||


 Chorus
  E E E E E E S S E   E E E E E E S S E
|-------------------|-7-----------------|
|-------------------|-------5-----------|
|-7-----5-----------|-----------7-----5-|
|---0-------7---0-5-|---5-----------5---|


  E E E E E E S S E   E E E E E E S S E
|-------------------|-7------------------|
|-------------------|-------5------------|
|-7-----5-----------|-----------7-----5--|
|---0-------7---0-5-|---5-----------5----|


                                           Interlude
  E E E E E E S S E   E E E E E E S S E     E E Q  E E Q
|-------------------|-7-----------------||----------------|
|-------------------|-------5-----------||o---------------|
|-7-----5-----------|-----------7-----5-||o-5-5----5-5----|
|---0-------7---0-5-|---5-----------5---||----------------|


  E E Q  E E Q    E E E E E E S S E   E E E E E E S S E  4x
|---------------|-------------------|--------------------||
|---------------|-------------------|-------------------o||
|---------------|-7-----5-----------|-7-----5-----------o||
|-5-5----5-5----|---0-------7---0-5-|---0-------7---0-5--||


 3rd Verse
  Q.   Q  E Q    +E   E  E E  E E  E E   Q.   Q  E Q    +E  E E E E E S S E
|--------------|-----11--------------9-|--------------|---------------------|
|-7----7-------|--------11-9-11-9-11---|-7----7-------|-----6---7---8-----9-|
|---------7-7--|-(7)-------------------|-----------7--|-(7)-------------7---|
|--------------|-----------------------|---------5----|---------------------|


  Q.   E +Q   E E   E E E E E E Q    Q  Q  E E E E   +Q.   E E E  E E
|-----------------|----------------|---------------|---------9---------|
|-7-----------5-6-|-7-7---7--------|----7--7-------|-------9---9-11-9--|
|------7-(7)------|-----------7-7--|---------5-6-7-|-(7)---------------|
|-----------------|----------------|---------------|-------------------|


  Q.   Q  E Q    +E   E  E E  E E  E E
|--------------|-----11--------------9-|
|-7----7-------|--------11-9-11-9-11---|
|---------7-7--|-(7)-------------------|
|--------------|-----------------------|


  Q.   Q  E E E   +E  S S E E S S E E E
|---------------|---------9-------9------|
|-7----7--------|-----7-9---9-7-9---9----|
|---------5-6-7-|-(7)-----------------7--|
|---------------|------------------------|


  E E E E E E E E   E E E E E E Q    Q  Q  E E E E   +E. S E E  E E  E  E
|-----------------|----------------|---------------|-------7-9-12-9-14-12--||
|-7-7---------5-6-|-7-7-7-7--------|---------------|-----------------------||
|-------7---7-----|-----------7-7--|----5--5-6---7-|-(7)-7-----------------||
|-----------------|----------------|---------------|-----------------------||


 Out-Chorus
  E E E E E E E E   E E E E E E E E   E E E E E E E E   E E E E E E E E
|-----------------|-7---------------|-----------------|------------------|
|-----------------|-------5---------|-----------------|------------------|
|-7-7---5---------|-----------7---5-|-7-----5---------|-------4---5---6--|
|-----0-----7---6-|---5-------------|---0-------7---6-|-5-5--------------|


  E E E E E E E E   E E E E E E E E   E E E E E E E E   E E E E E E E E
|-----------------|-7---------------|-----------------|------------------|
|-----------------|-------5---------|-----------------|------------------|
|-7-----5---------|-----------7---5-|-7-----5---------|-------4---5---6--|
|---0-------7---6-|---5-------------|---0-------7---6-|-5-5--------------|


  E E E E E E E E   E E E E E E E E   E E E E E E E E   E E E E E E E E
|-----------------|-7---------------|-----------------|------------------*|
|-----------------|-------5---------|-----------------|------------------*|
|-7-----5---------|-----------7---5-|-7-----5---------|-------4---5---6--*|
|---0-------7---6-|---5-------------|---0-------7---6-|-5-5--------------*|


Duration Legend
---------------
W - whole; H - half; Q - quarter; E - 8th; S - 16th; T - 32nd; X - 64th; a - acciaccatura
+ - note tied to previous; . - note dotted; .. - note double dotted
Uncapitalized letters represent notes that are staccato (1/2 duration)
Irregular groupings are notated above the duration line
Duration letters will always appear directly above the note/fret number it represents the
duration for.  Duration letters with no fret number below them represent rests.  Multi-
bar rests are notated in the form Wxn, where n is the number of bars to rest for.  Low
melody durations appear below the staff

Tablature Legend
----------------
 h   - hammer-on
 p   - pull-off
 b   - bend
 pb  - pre-bend
 r   - bend release (if no number after the r, then release immediately)
 /\  - slide into or out of (from/to "nowhere")
 s   - legato slide
 S   - shift slide
  - natural harmonic
[n]  - artificial harmonic
n(n) - tapped harmonic
 ~   - vibrato
 tr  - trill
 T   - tap
 TP  - trem. picking
 PM  - palm muting
\n/  - tremolo bar dip; n = amount to dip
 \n  - tremolo bar down
 n/  - tremolo bar up
/n\  - tremolo bar inverted dip
 =   - hold bend; also acts as connecting device for hammers/pulls
 <>  - volume swell (louder/softer)
 x   - on rhythm slash represents muted slash
 o   - on rhythm slash represents single note slash

Misc Legend
-----------
 |  - bar
||  - double bar
||o - repeat start
o|| - repeat end
*|  - double bar (ending)
 :  - bar (freetime)
 $  - Segno
 &  - Coda
Tempo markers -  = BPM(8/16=s8/s16), where s8 = swing 8ths, s16 = swing 16ths



Roll that tape
Ooh, ooh, ooh, ooh, ooh
Ooh, ooh, ooh

Thirty...
Thirty days...
Anyone doin' that one?
Thirty...
I'm doin' that one

30 days in the hole (yeah, that's nice)
30 days in the hole
30 days in the hole (Lord have mercy)

(Laughter)
Oh yeah, c'mon in man that's it
Yeah right

All right, all right, all right, all right, yeah

Chicago Green, talkin' 'bout red Lebanese
A dirty room and a silver coke spoon
Give me my release, come on
Black Nepalese, it's got you weak in your knees
Seeds and dust that you got bust on
You know it's hard to believe

30 days in the hole
30 days in the hole
30 days in the hole
That's what they give you
30 days in the hole

Newcastle Brown, I'm tellin' ya, it can sure smack you down
Take a greasy whore and a rollin' dance floor
It's got your head spinnin' round
If you live on the road, well there's a new highway code
You take the urban noise with some durban poison
It's gonna lessen your load

30 days in the hole
That's what they give you now
30 days in the hole
Oh, yeah
30 days in the hole
All right, all right
30 days in the hole

Well how you doin' boy?
You here for 30 days
Get, get, get your long hair cut
And cut out your ways

Black Nepalese, it got you weak in your knees
Only seeds and dust that you got bust on
You know it's so hard to please
Newcastle Brown can sure smack you down
You take a greasy whore and a rollin' dance floor
You know you're jailhouse-bound

30 days in the hole
30 days in the hole
30 days in the hole
Ohoooohooohooooo
30 days in the hole
30 days, 30 days, 30 days in the hole
30 days in the hole
30 days in the hole
30 days in the hole
30 days in the hole
30 days in the hole
30 days in the hole
30 days in the hole
30 days in the hole
Suggest correction
Creating personal tab
Creating personal tab
You can edit any tab online and save it as your Personal.

You can edit, replace or remove any tab part or add personal notes – all changes will be seen only by you.

Personal tabs can be accessed anytime from any device, even offline.
Learn more »
Give kudos to tab author, rate the tab!
1 2 3 4 5
comments
print report bad tab
guest
You may want to rate the tab now too:
select rating
Wanna post a correction for this tab? Suggest correction