Oops, an error
Loading. Please wait.

De Tenerte tab

119 views 1 this week
no commentswrite comment
1 2 3 4 5
3 more votes to show rating
add to favorites
×
Save as Personal and add changes to this tab that will be seen only by you. Learn more ›
×
You can save this tab as Personal to edit and correct it or add notes. All changes will be seen only by you. Learn more »
launch autoscroll
font size
0
reset
how to read this tab
guitar tuner
edit
Autoscroll
slow
fast
+/-
esc
set tempo
stop
 Me suena bien,
pero no estoy muy seguro por que yo la toco en afinacion estandar
espero les guste, y si le encuentran mejoras, me avisan va?

La toco en quintas

(~) dejar sonando
(/) Slide
(h) hammer

INTRO:
e|------------------------------------------------------------------|
B|-----------------------------------------9-11~-11h12-11-9---------|
G|-11~-11/10-8-6~--6/11~-11/10-8-10~-8/11~------------------11-11~~-|
D|------------------------------------------------------------------|
A|------------------------------------------------------------------|
E|------------------------------------------------------------------|


Fig 1                    Fig 2
e|-------------|        e|-------------|
B|-5h7-5-------|        B|----2h4-2----|
G|-------6-----|        G|----------3--|
D|-------------|        D|-------------|
A|-------------|        A|-------------|
E|-------------|        E|-------------|

VERSO:
B5              (Fig 1)  D#5        C#5
    Es tan difícil,        que ya no tengas que seguir
B5            (Fig 1) D#5         C#5
 Algo te pasa,           que no te deja respirar
B5                (Fig 1)           D#5         C#5
 Quisiera verte, ((quisiera verte)), que no levantes nunca más
B5          (Fig 2) D#5       C#5
 Y de tenerte,       sin detenerte


B5           C#5         D#5
Nooooooooooo puedo hablarte

Coro (Con Palm mute)

  A#5/B5 B5/C#5  C#5/B5     B5/A#5    A#5/B5   B5/C#5  C#5 ~
Si tú no estas,  Sin ti no puedo mas,  no importa que dirán     [X2]


De nuevo el verso:
Vuelve a lo mismo, y ya me quieres lastimar
Es una lucha, que pronto tiene que acabar
Quisiera verte, ((quisiera verte)), que no levantes nunca más
Y de tenerte, sin detenerte

B5 ~    C#5 ~

Vuelve el coro (X2)


e|-----------------------------------|
B|-16(X6)-14(X6)-11(X6)-14-11-9-11---|
G|-----------------------------------|
D|-----------------------------------|
A|-----------------------------------|
E|-----------------------------------|  (X2)


 B|-16(X6)-------14(X6)---|
Es por ti que la vida esta

 B|-16(X6)-------14(X6)---|
Es por ti que ya no siento ya nada más

 B|-16(X6)-------14(X6)---|
Es por ti que la vida esta

 B|--11(X6)-14-11-9-11-----|
Es por ti que daría todo por ti


OUTRO:
el final suena algo asi, pero despues le meten cosas
como apagar las cuerdas con la mano o slides hacia arriba.

e|--------------------------|
B|--------------------------|
G|--------------------------|
D|--------------------------|
A|-2222222-222~-222222------|
E|-0000000-303~-000000------|

            
            
Suggest correction
Creating personal tab
Creating personal tab
You can edit any tab online and save it as your Personal.

You can edit, replace or remove any tab part or add personal notes – all changes will be seen only by you.

Personal tabs can be accessed anytime from any device, even offline.
Learn more »
Give kudos to tab author, rate the tab!
1 2 3 4 5
comments
print report bad tab
guest
Wanna post a correction for this tab? Suggest correction