Oops, an error
Loading. Please wait.

Avalanche tab

version 1
version 1

Whole song

Interactive

820 views 1 this week
1 commentread comment
1 2 3 4 5
1 last vote to show rating
add to favorites
×
Save as Personal and add changes to this tab that will be seen only by you. Learn more ›
×
You can save this tab as Personal to edit and correct it or add notes. All changes will be seen only by you. Learn more »
launch autoscroll
font size
0
reset
how to read this tab
guitar tuner
edit
Autoscroll
slow
fast
+/-
esc
set tempo
stop
Hundred Reasons - Avalanche
Submitted By: Barry
EMail: Bazdurst@yahoo.com
Album: Ideas beyond our station


Tuning: EADGBE

Intro

E|-----------------------------------|
B|-----------------------------------|
G|---------5---------5-----------5-5-|
D|-5-3-2-5-5-3-2-5-5-3-2-5-5-3-2-5---|
A|---------3---------3-----------3---|
E|-----------------------------------|

Verse 

E|-------3------3-------3---------------3---------3-----------------|
B|--------------------------------------------------------3-------1-|
G|-------0------0-------0-------5-------0-------0-------------------|
D|-3-2-----3-2----3-2-----5-3-2-5-3-2-----3-2-------3-2-----3-2-----|
A|-----3-------3------3---------3-----3-------3---------3-------3---|
E|------------------------------------------------------------------|

Chorus

E|-3-3-|-2-3-|
B|-6-3-|-2-3-|
G|-5-5-|-4-5-|
D|-3-5-|-4-5-|
A|---3-|-2-3-|
E|-----|-----|

End on

E|---|
B|---|
G|-5-|
D|-5-|
A|-3-|
E|---|

            
            
Suggest correction
Creating personal tab
Creating personal tab
You can edit any tab online and save it as your Personal.

You can edit, replace or remove any tab part or add personal notes – all changes will be seen only by you.

Personal tabs can be accessed anytime from any device, even offline.
Learn more »
Give kudos to tab author, rate the tab!
1 2 3 4 5
comments
print report bad tab
1 comment total.
0 reply
Simon Sandhar 10 Nov 10, 2006 06:31 AM

the tab is inaccurate - this is mine below, try playing it with the song, it makes about 99% sense althought a couple of chords may be wrong.

=======
|Intro| (x2)
=======

E|-1p0----3--1p0-------|
B|-3------3--3------3--|
G|-2------5--2------5--|
D|-0------5--0------5--|
A|-0------3--0------3--|
E|------3-3-------3-3--|

=========
|Verse 1|
=========

E|--1p0-3--1p0-3--1p0-3-1p0------|
B|------1------1------1-3-----3--|
G|------0------0------0-2-----5--|
D|----------------------0-----5--|
A|-3---3--3---3--3---3--0-----3--|
E|--------------------------3-3--|

the avalanche, we strode towards

E|--1p0-3--1p0-3--1p0-----1p0----|
B|------1------1-------3------1--|
G|------0------0-------2------0--|
D|---------------0---0-0-3---3---|
A|-3---3--3---3------------------|
E|-------------------------------|

is nothing too us, at all - now...

E|--1p0-3--1p0-3--1p0-3-1p0------|
B|------1------1------1-3-----3--|
G|------0------0------0-2-----5--|
D|----------------------0-----5--|
A|-3---3--3---3--3---3--0-----3--|
E|--------------------------3-3--|

with all its force we know, it cannot

E|--1p0-3--1p0-3--1p0-----1p0----|
B|------1------1-------3------1--|
G|------0------0-------2------0--|
D|---------------0---0-0-3---3---|
A|-3---3--3---3------------------|
E|-------------------------------|

ever concieve to - stand in our way

========
|Chorus| (x2)
========

E|---------------------------|
B|---------------------------|
G|-5--5---2-----------7--10--|
D|-5--5---2--5--2--3--7--10--|
A|-3--2---0--5--2--3--5--8---|
E|-----------3--0--1--5--8---|

condascending
chased it to where
we're the first ones
start our lives here(...)

=======
|Break|
=======

E|-1p0----3--1p0-------|
B|-3------3--3------3--|
G|-2------5--2------5--|
D|-0------5--0------5--|
A|-0------3--0------3--|
E|------3-3-------3-3--|

..(here)...

=========
|Verse 2|
=========

E|--1p0-3--1p0-3--1p0-3-1p0------|
B|------1------1------1-3-----3--|
G|------0------0------0-2-----5--|
D|----------------------0-----5--|
A|-3---3--3---3--3---3--0-----3--|
E|--------------------------3-3--|

and changing patterns, dont take a toll

E|--1p0-3--1p0-3--1p0-----1p0----|
B|------1------1-------3------1--|
G|------0------0-------2------0--|
D|---------------0---0-0-3---3---|
A|-3---3--3---3------------------|
E|-------------------------------|

we wont forget, why we are here...

E|--1p0-3--1p0-3--1p0-3-1p0------|
B|------1------1------1-3-----3--|
G|------0------0------0-2-----5--|
D|----------------------0-----5--|
A|-3---3--3---3--3---3--0-----3--|
E|--------------------------3-3--|

with our hands held together, the clouds part

E|--1p0-3--1p0-3--1p0-----1p0----|
B|------1------1-------3------1--|
G|------0------0-------2------0--|
D|---------------0---0-0-3---3---|
A|-3---3--3---3------------------|
E|-------------------------------|

as if they knew - not-to - stand in our way

========
|Chorus| (x4)
========

E|---------------------------|
B|---------------------------|
G|-5--5---2-----------7--10--|
D|-5--5---2--5--2--3--7--10--|
A|-3--2---0--5--2--3--5--8---|
E|-----------3--0--1--5--8---|

condascending
chased it to well
we're the first ones
start our lives here(...)

=======
|Outtro|
=======

E|-1p0----3--1p0-------1p0----3--1p0----------|
B|-3------3--3------3--3------3--3------3-----|
G|-2------5--2------5--2------5--2------5--5--|
D|-0------5--0------5--0------5--0------5--5--|
A|-0------3--0------3--0------3--0------3--3--|
E|------3-3-------3-3-------3-3-------3-3--x--|

..(here)...

guest
Wanna post a correction for this tab? Suggest correction