Oops, an error
Loading. Please wait.

I Want Crazy Tab

version 1
version 1

Whole song

3,420 views 27 this week
no commentswrite comment
1 2 3 4 5
please rate
add to favorites
launch autoscroll
font size
0
reset
how to read this tab
guitar tuner
Tab Pro tools
  • play this tab
  • loop segment
  • change instrument
  • show fretboard
  • metronome
×
Best way to learn
"I Want Crazy"
Autoscroll
slow
fast
+/-
esc
set tempo
stop
Contributor
So my first attempt at this was pretty wrong, so I wanted to right my wrongs and re-tab
this for everyone who wants to learn to play it. I'm pretty sure this is right, but
again, I could be wrong. I'm currently in the middle of finals so this will have to come 
in segments. Hopefully it'll be done by Christmas. Please rate and comment. It makes me want
to work on this more.

Tuning Eb Ab Db Gb Bb eb (half-step down)
Intro
--------0-4p0-0---0-----0--------0-4p0-0---0---|
---0h2h4-0---4-5/7-0-7/9-0--0h2h4-0---4-2/4-0--|
-----------------------------------------------|
-----------------------------------------------|
-----------------------------------------------|
-----------------------------------------------|

-------0-4p0-0---0-----0------0-----0-----0-------|
--0h2h4-0---4-5/7-0-7/9-0-9/10-0-7/9-0-2/4-0-4/5~-|
--------------------------------------------------|
--------------------------------------------------|
--------------------------------------------------|
--------------------------------------------------|

Verse: E

First Fill
-------------------|
-----7h9-----------|
----9---8-6~-------|
------------9~-7~--|
-------------------|
-------------------|

Second Fill
-----------------------------------------|
-----7h9-------7h9-----------------------|
----9---8-6~--9---8-6~-6-8-9~-8-9-11-9~--|
-----------------------------------------|
-----------------------------------------|
-----------------------------------------|

Chorus
    A   E   E EbDbB A   Cm B  E(until end of chorus)
----5-------------------4--------|
----5---9---9-8-6-4-2---5--4--9--|
----6---9---9-8-6-4-2---6--4--9--|
----7---9---9-8-6-4-2---6--4--9--|
----7---7---7-6-4-2-0---4--2--7--|
----5----------------------------|

Intro

Verse

Third Fill
--5/7----------5/7----------|
-----10-9-7-9-----10-9-7-9--|
----------------------------|
----------------------------|
----------------------------|
----------------------------|
comments
We did not receive enough feedback on this tab! Please rate:
print report bad tab
1 2 3 4 5
I want to post or [tab]
guest
You may want to rate the tab now too:
select rating
Please do not post tabs as comments. Select "correction" instead!