Oops, an error
Loading. Please wait.

Barbara Jean Tab

720 views 1 this week
no commentswrite comment
1 2 3 4 5
please rate
add to favorites
launch autoscroll
font size
0
reset
how to read this tab
guitar tuner
Autoscroll
slow
fast
+/-
esc
set tempo
stop
Help us to improve Ultimate-Guitar.com Take our survey!
×
Author
Barbara Jean

You have to figure out the rhythm of the song.


Intro:

e:---------------------------------------------------------------------------|
B:---------------------------------------------------------------------------|
G:---------------------------------------------------------------------------|
D:---8-6-4---8-11-4---8-6-4-6------------------------------------------------|
A:---8-6-4---8-11-4---8-6-4-6------------------------------------------------|
E:---6-4-2---6--9-2---6-4-2-4------------------------------------------------|

You have to figure out the rhythm of the song.

Verse and Chourus

e:---------------------------------------------------------------------------|
B:---------------------------------------------------------------------------|
G:---------------------------------------------------------------------------|
D:---8-6-4-6------------------4x---------------------------------------------|
A:---8-6-4-6-----------------------------------------------------------------|
E:---6-4-2-4-----------------------------------------------------------------|

3.Verse

e:---------------------------------------------------------------------------|
B:---------------------------------------------------------------------------|
G:---------------------------------------------------------------------------|
D:---8-6-4-6------------------4x---------------------------------------------|
A:---8-6-4-6-----------------------------------------------------------------|
E:---6-4-2-4-----------------------------------------------------------------|

Outro:
e:---------------------------------------------------------------------------|
B:---------------------------------------------------------------------------|
G:---------------------------------------------------------------------------|
D:---8-6-4---8-11-4---8-6-4--------------------------------------------------|
A:---8-6-4---8-11-4---8-6-4--------------------------------------------------|
E:---6-4-2---6--9-2---6-4-2--------------------------------------------------|
Suggest correction
Give kudos to tab author, rate the tab!
1 2 3 4 5
comments
print report bad tab
guest
You may want to rate the tab now too:
select rating
Please do not post tabs as comments. Select "correction" instead!