Oops, an error
Loading. Please wait.

All My Might Tab

475 views 6 this week
2 commentsread comments
1 2 3 4 5
x 7
add to favorites
launch autoscroll
font size
0
reset
how to read this tab
guitar tuner
×
Best way to learn
"All My Might"
Autoscroll
slow
fast
+/-
esc
set tempo
stop
Author
Difficulty
Capo
  follow
intermediate
6th fret
About this tab version
It is the only tab for this indie song. Was this info helpful? Yes No
My first tab! I followed the video Michael put out on how to play. No one has written it out, so here you go!
Please help with any errors I may have come across.


This is only the main backing and the hammer on variations. The chorus is Em, FM, GM (or G7), C/G 
(thanks Michael) following the same picking pattern as the verse.

[Intro]

             C                             Em 
e|-----------------------------|-----------------------------|
B|-----------1-----1--------1--|-----------0-----0--------0--|
G|-----0--------0-----0--------|-----0--------0-----0--------|
D|--------2--------2-----2-----|--------2--------2-----2-----|
A|--3--------------------------|--2--------------------------|
E|-----------------------------|-----------------------------|
             F                              
e|-----------------------------|-----------------------------------|
B|-----------1-----1--------1--|-----------------------------------|
G|-----2--------2-----2--------|-----0-----0-----0-----0-----0-----|
D|--------3--------3-----3-----|--------0-----2-----3-----2-----0--|
A|--0--------------------------|-----------------------------------|
E|-----------------------------|--3--------------------------------|

The last part you can either slide, or as I like to do, just keep your middle finger on the top G, and your
index and ring finger do the 0-2-3 alternation.


[Verse]

Add these random hammer ons throughout!

             C                               Em 
e|-------------------------------|-------------------------------|
B|-----------1---------------1---|-----------0-----3h0--------0--|
G|-----0--------0-------0--------|-----0--------0-------0--------|
D|--------2--------0h2-----2-----|--------2----------------2-----|
A|--3----------------------------|--2----------------------------|
E|-------------------------------|-------------------------------|
             F                              
e|-------------------------------|-----------------------------------|
B|-----------1----------------1--|-----------------------------------|
G|-----2-----------0h2--2--------|-----0-----0-----0-----0-----0-----|
D|--------3-----3----------3-----|--------0-----2-----3-----2-----0--|
A|--0----------------------------|-----------------------------------|
E|-------------------------------|--3--------------------------------|



************************************

| h   Hammer-on
| p   Pull-off

************************************
Suggest correction
comments
print report bad tab
2 comments total.
0 reply
findcookies 12 Oct 08, 2016 01:53 AM

Hey, great work on the tab!

Just one thing, the alternation is 0-2-3, rather than 0-1-2. Other than that, thanks for tabbing it out from the video!

guest
You may want to rate the tab now too:
select rating
Wanna post a correction for this tab? Suggest correction