Oops, an error
Loading. Please wait.

Holy Grail bass

version 1
version 1

Whole song

Interactive

4,739 views 3 this week
no commentswrite comment
1 2 3 4 5
1 last vote to show rating
add to favorites
×
Save as Personal and add changes to this tab that will be seen only by you. Learn more ›
×
You can save this tab as Personal to edit and correct it or add notes. All changes will be seen only by you. Learn more »
launch autoscroll
font size
0
reset
guitar tuner
edit
Autoscroll
slow
fast
+/-
esc
set tempo
stop
Intro/Chrous

G------------------------------------------------|
D------------------------------------------------|
A------------------4-4-xxx-----------------------|
E--0-0-xxx---5-5-5-------7-7-7-------------------|

Verse

G------------------------------------------------|
D------------------------------------------------|
A-----------------4-4-4--------------------------|
E--0-0-0---5-5-5-------7-7-7---------------------|

Bridge

G------------------------------------------------|
D------------------------------------------------|
A-----------------4-4-xxx------------------------|
E--5-5-5-5-5-5-5-5-------7-7-7-------------------|

Order: Intro/Chrous x2
       Verse x3
       Intro/Chrous x1
       Verse x3
       Intro/Chrous x1
       Bridge x2
       Intro/Chrous x2
       Bridge x3
       Intro/Chrous x1
       Bridge x3
       Intro/Chrous x2
       Bride x2
       Intro/Chrous x7 (fade out)

            
            
Suggest correction
Creating personal tab
Creating personal tab
You can edit any tab online and save it as your Personal.

You can edit, replace or remove any tab part or add personal notes – all changes will be seen only by you.

Personal tabs can be accessed anytime from any device, even offline.
Learn more »
Give kudos to tab author, rate the tab!
1 2 3 4 5
comments
print report bad tab
guest
Wanna post a correction for this tab? Suggest correction