Oops, an error
Loading. Please wait.

Holy Grail tab

version 3
version 3

Interactive

Video

5,920 views 3 this week
2 commentsread comments
1 2 3 4 5
x 12
add to favorites
×
Save as Personal and add changes to this tab that will be seen only by you. Learn more ›
×
You can save this tab as Personal to edit and correct it or add notes. All changes will be seen only by you. Learn more »
launch autoscroll
font size
0
reset
how to read this tab
guitar tuner
edit
Autoscroll
slow
fast
+/-
esc
set tempo
stop
-------------------------------------------------------------------------------
                             Holy Grail - Hunters & Collectors
-------------------------------------------------------------------------------
Tabbed by:Aussie_Pride
Email:

Tuning:Standard
       Start Keyboard bit
e|-----7-5-4-2-0-0-0-0-2-----|
B|---5-----------------------|
G|-4-------------------------|
D|---------------------------|
A|---------------------------|
E|---------------------------|
      
         CHORUS  Light dist.
e|-0-0---------------------------------------0-0---------------------------------|
B|-0-0-x-x-x-x-2-2---------------------------0-0-x-x-x-x-2-2---------------------|
G|-1-1-x-x-x-x-2-2----6-6-x-x-x-x-4-4--------1-1-x-x-x-x-2-2----6-6-x-x-x-x-4-4--|
D|-2-2-x-x-x-x-2-2----6-6-x-x-x-x-4-4--------2-2-x-x-x-x-2-2----6-6-x-x-x-x-4-4--|
A|-2-2---------0-0----4-4-x-x-x-x-2-2--------2-2---------0-0----4-4-x-x-x-x-2-2--|
E|-0-0---------------------------------------0-0---------------------------------|
           
              Verses

e|-0-0---------------------------------------0-0---------------------------------|
B|-0-0-x-x-x-x-2-2---------------------------0-0-x-x-x-x-2-2---------------------|
G|-1-1-x-x-x-x-2-2----6-6-x-x-x-x-4-4--------1-1-x-x-x-x-2-2----6-6-x-x-x-x-4-4--|
D|-2-2-x-x-x-x-2-2----6-6-x-x-x-x-4-4--------2-2-x-x-x-x-2-2----6-6-x-x-x-x-4-4--|
A|-2-2---------0-0----4-4-x-x-x-x-2-2--------2-2---------0-0----4-4-x-x-x-x-2-2--|
E|-0-0---------------------------------------0-0---------------------------------|

           End Keyboard Bit
e|-----7-5-4-2-0-0-0-0-2--------7-5-4-2-4-0-0-0-2--|
B|---5------------------------5--------------------|
G|-4------------------------4----------------------|
D|-------------------------------------------------|
A|-------------------------------------------------|
E|-------------------------------------------------|

| x  Mute note

This is my first tab so please rate it.

===============================================================================

            
            
Suggest correction
Creating personal tab
Creating personal tab
You can edit any tab online and save it as your Personal.

You can edit, replace or remove any tab part or add personal notes – all changes will be seen only by you.

Personal tabs can be accessed anytime from any device, even offline.
Learn more »
comments
print report bad tab
2 comments total.
0 reply
snot_foster25 60 Apr 10, 2007 11:38 PM

The parts of the song you have tabbed here are spot on, but in the second half of the song, the chord structure changes.

If I can be bothered, I'll tab it out with the changed chord structures.

Overall, great tab, mate.

0 reply
Anguss22 10 Jun 16, 2009 02:06 AM

Nice tab...spot on, and also what makes the intro/outro easier is
e|-----7-5-4-2-0-0-0-0-0h2-----|
B|---5-------------------------|
G|-4---------------------------|
D|-----------------------------|
A|-----------------------------|
E|-----------------------------|

Hammer the 2 on with a quick 0 on it.

guest
Wanna post a correction for this tab? Suggest correction