Oops, an error
Loading. Please wait.

Holy Grail tab

version 4
version 4

Interactive

Video

2,700 views 6 this week
1 commentread comment
1 2 3 4 5
2 more votes to show rating
add to favorites
×
Save as Personal and add changes to this tab that will be seen only by you. Learn more ›
×
You can save this tab as Personal to edit and correct it or add notes. All changes will be seen only by you. Learn more »
launch autoscroll
font size
0
reset
how to read this tab
guitar tuner
edit
Autoscroll
slow
fast
+/-
esc
set tempo
stop
Author
Difficulty
Here it is. I'm pretty sure its all right, but this is only my second tab. This tab is spaced for timing.
Standard Tuning

                   Verse 1 and 3

     E               A         C#min           B
E|-0---0---x-x-x-x-0--0----------4--x-x-x-x--2--2--|
B|-0---0---x-x-x-x-2--2----------5--x-x-x-x--4--4--|
G|-1---1---x-x-x-x-2--2----------6--x-x-x-x--4--4--|
D|-2---2---x-x-x-x-2--2----------6--x-x-x-x--4--4--|
A|-2---2---x-x-x-x-0--0---2///4--4--x-x-x-x--2--2--|
E|-0---0---x-x-x-x------------------x-x-x-x--------|


              Verse 2, 4 and 6

          A         C#min           B
E|-0---0-0-0-0-0-0---4--4--x-x-x-x-2--2--|
B|-2---2-2-2-2-2-2---5--5--x-x-x-x-4--4--|
G|-2---2-2-2-2-2-2---6--6--x-x-x-x-4--4--|
D|-2---2-2-2-2-2-2---6--6--x-x-x-x-4--4--|
A|-0---0-0-0-0-0-0---4--4--x-x-x-x-2--2--|
E|---------------------------------------|


These next chords are played by a piano in the song but this is how they are played on guitar.

             Verse 5

|-7-------5-------4---------------|
|-9-------7-------5---------------|
|-9-------7-------6---------------|
|-9-------7-------6---------------|
|-7-------5-------4---------------|
|---------------------------------|

This solo is played by a trumpet, but this is how it is played on guitar.

                         Solo

E|-7---4-5-4--4-5-4-0---0-2-4--4--2-0-2--|
B|---------------------------------------|
G|---------------------------------------|
D|---------------------------------------|
A|---------------------------------------|
E|---------------------------------------|


E|-7---4-5-4--4-5--7--9---9-11-12--12-12-14-12--|
B|----------------------------------------------|
G|----------------------------------------------|
D|----------------------------------------------|
A|----------------------------------------------|
E|----------------------------------------------|

Cheers, Enjoy,
Jonno 

            
            
Suggest correction
Creating personal tab
Creating personal tab
You can edit any tab online and save it as your Personal.

You can edit, replace or remove any tab part or add personal notes – all changes will be seen only by you.

Personal tabs can be accessed anytime from any device, even offline.
Learn more »
Give kudos to tab author, rate the tab!
1 2 3 4 5
comments
print report bad tab
1 comment total.
0 reply
jk41 753 Jun 14, 2017 05:50 AM

no, main "holy grail" riff. E A C# B
verse E C# B
after 2nd time in verse after he sings holy grail and they play the main riff once it changes to A C# B

guest
You may want to rate the tab now too:
select rating
Wanna post a correction for this tab? Suggest correction