Oops, an error
Loading. Please wait.

Holy Grail Acoustic tab

version 6
version 6

Interactive

Video

3,291 views 6 this week
no commentswrite comment
1 2 3 4 5
3 more votes to show rating
add to favorites
×
Save as Personal and add changes to this tab that will be seen only by you. Learn more ›
×
You can save this tab as Personal to edit and correct it or add notes. All changes will be seen only by you. Learn more »
launch autoscroll
font size
0
reset
how to read this tab
guitar tuner
edit
Autoscroll
slow
fast
+/-
esc
set tempo
stop
Author
HOLY GRAIL
As recorded by Hunters and Collectors



 Piano part transcribed for guitar
Guitar I - Piano (Guitar)
Guitar II - Guitar

   Verse
    Q=100
    E                             C#m     B
   4/4
    Gtr II
    PM------------------------------------------|
                                                   3x
||------------------------------|------------------||
||o-----------------------------|-----5-----------o||
||---------9-------------9------|-----6-------4----||
||---------9-------------9------|-6-6-6-6-4-4-4S9--||
||o-7--7---7---7--7--7---7---7--|-4-4-4-4-2-2-2S7-o||
||--0-(0)-(0)-(0)-0-(0)-(0)-(0)-|------------------||


  E5                C#5                B5
  Gtr II
  PM-----------------------------------------|
|-----------------|--------------------------|
|-----------------|------5-------------------|
|-----------------|------6-------------4-----|
|-----2-------2---|-/6-6-6-6-----4---4-4S9---|
|-2-2-2-2-2-2-2-2-|-/4-4-4-4-----2---2-2S7---|
|-0-0-0-0-0-0-0-0-|--------------------------|
|
| Gtr I
|-----------------|------------------------|
|-----------------|------------------------|
|-------4-2-1-----|------------------------|
|-----2-------4---|--2---2---(2)-2-4-------|
|---2-------------|------------------------|
|-----------------|------------------------|


   Verse 2
    E                             C#m     B
    PM------------------------------------------|
                                                   3x
||------------------------------|------------------||
||o-----------------------------|-----5-----------o||
||---------9-------------9------|-----6-------4----||
||---------9-------------9------|-6-6-6-6-4-4-4S9--||
||o-7--7---7---7--7--7---7---7--|-4-4-4-4-2-2-2S7-o||
||--0-(0)-(0)-(0)-0-(0)-(0)-(0)-|------------------||


  E5        A5      C#5        B5
  PM-----------------------------------|
|-----------------|--------------------|
|-----------------|------5-------------|
|-----------------|------6-------4-----|
|-----2-------2---|-/6-6-6-6-4-4-4-----|
|-2-2-2-2-2-2-2-2-|-/4-4-4-4-2-2-2-2---|
|-0-0-0-0-0-0-0-0-|--------------------|
|
| Gtr I
|-----------------|------------------|
|-----------------|------------------|
|-------4-2-1-----|------------------|
|-----2-------4---|--6---2---4-------|
|---2-------------|------------------|
|-----------------|------------------|


 Verse 3
  A                 C#m       B
  PM------------------------------------|
|-----------------|---------------------|
|-----------------|------5--------2-----|
|-----2-------2---|------6--------4-----|
|-2-2-2-2-2-2-2-2-|-6-6--6--6-4-4-4-4---|
|-0-0-0-0-0-0-0-0-|-4-4--4--4-2-2-2-2---|
|-----------------|---------------------|
|
| Gtr III
|-------------0---|-------------------|
|-----------0-----|---5-(5)---4-------|
|---------2-------|---6-(6)---4-------|
|-------2---------|---6-(6)---4-------|
|-0---------------|-4-------2-2-----2-|
|-----------------|-------------------|


    A                 C#m     B
    PM------------------------------------|
||------------------|---------------------|
||o-----------------|-----------------o---|
||------2-------2---|-----6-------4-------|
||--2-2-2-2-2-2-2-2-|-6-6-6-6-4-4-4-4-----|
||o-0-0-0-0-0-0-0-0-|-4-4-4-4-2-2-2-2-o---|
||------------------|---------------------|
|
||--0---------------|---------2--------||
||o-2---------------|-5-------4-------o||
||--2---------------|-6-------4--------||
||------------------|-6-------4--------||
||o-----------------|-----------------o||
||--0---------------|-4-------2--------||


    E5         A5      C#5        B5
||-------------------|---------------------||
||o------------------|--------------------o||
||-------------------|-6--6-x-x-x----------||
||--2--2-x-x-x-7-7-x-|-6--6-x-x-x--9--9-x--||
||o-2--2-x-x-x-7-7-x-|-4--4-x-x-x--9--9-x-o||
||--0--0-x-x-x-5-5-x-|-------------7--7-x--||
|
||-------------------|-4--4----------------||
||o------------------|-5--5---------------o||
||-----1-------------|-6--6-----6--8--8----||
||--6--2-2---2-7-7---|-6--------6--9--9----||
||o-7--2-2---2-7-7---|----------4-11-11---o||
||--0----0---0-5-5---|----4--------7--7-7--||


   Verse 4
    E                             C#m     B
    PM------------------------------------------|
                                                   3x
||------------------------------|------------------||
||o-----------------------------|-----5-----------o||
||---------9-------------9------|-----6-------4----||
||---------9-------------9------|-6-6-6-6-4-4-4S9--||
||o-7--7---7---7--7--7---7---7--|-4-4-4-4-2-2-2S7-o||
||--0-(0)-(0)-(0)-0-(0)-(0)-(0)-|------------------||
|
|                                                  3x
||------------------------------|-4----------------||
||o-----------------------------|-5---------------o||
||--4---------------------------|-6---6-6-8---8----||
||--6---------------------------|-6---6-6-9---9----||
||o-7---------------------------|-----4-4---------o||
||--0------0------0------0------|---------7---7-7--||


  E5           A5    C#5              B5
|------------------|--------------------|
|------------------|--------------------|
|------------------|-6--6-x-x-x---------|
|-2--2-x-x-x-7-7-x-|-6--6-x-x-x--9--9-x-|
|-2--2-x-x-x-7-7-x-|-4--4-x-x-x--9--9-x-|
|-0--0-x-x-x-5-5-x-|-------------7--7-x-|
|
|--------------0---|-4--4---------------|
|-5--0-------5-2---|-5--5---------------|
|-4--1-------4-2---|-6--6-----6--8--8---|
|-6--2-2-------2---|-6--------6--9--9---|
|----2-2-----------|----------4-11-11---|
|-0----0-----------|----4--------7--7-7-|


   Verse 5
    A                 C#m       B
                         PM|    PM|
                                     3x
||--0---------------|----------------||
||o-2-----------2---|---------------o||
||--2-----------2---|-6------4-------||
||--2-----------2---|-6------4-------||
||o-0-----------0---|-4--4-4-2--2-2-o||
||--0---------------|----4-4---------||
|
|   Gtr IV
|                                    3x
||--------------0---|-4--------------||
||o-------0-----2---|-5------7--7---o||
||--2-----2-----2---|-6------8--8----||
||--2-----2-----2---|-6------9--9----||
||o-0-0---0-0---0-0-|----4-4--------o||
||--0-0-0-0-0-0-0-0-|--------7--7----||


  E          A       C#5           B5
|-0--0-------0-0---|--------------------|
|-0--0-------2-2---|--------------------|
|-1--1-------2-2---|-6--6-x-x-x---------|
|-2--2-x-x-x-2-2-x-|-6--6-x-x-x--9--9-x-|
|-2--2-x-x-x-0-0-x-|-4--4-x-x-x--9--9-x-|
|-0--0-x-x-x-----x-|-------------7--7-x-|
|
| Gtr III
|--------------0---|-4--4---------------|
|-5--0-------5-2---|-5--5---------------|
|-4--1-------4-2---|-6--6-----6--8--8---|
|-6--2-2-------2---|-6--------6--9--9---|
|----2-2-----------|----------4-11-11---|
|-0----0-----------|----4--------7--7-7-|


  E             A       C#m        B
|-0---0---------0-0---|-4--4-------2-2---|
|-0---0---------2-2---|-5--5-------4-4---|
|-1---1---------2-2---|-6--6-x-x-x-4-4---|
|-2---2---x-x-x-2-2-x-|-6--6-x-x-x-4-4-x-|
|-2---2---x-x-x-0-0-x-|-4--4-x-x-x-2-2-x-|
|-0---0---x-x-x-----x-|----------------x-|
|
| Gtr I
|---------------------|------------------|
|---------------------|------------------|
|-------4---2---1-----|------------------|
|-----2-----------4---|-6--2---4---------|
|---2-----------------|------------------|
|---------------------|------------------|


   Bridge / Trumpet Solo
    E                   Dsus2
    PM--------------------------------------|
||--------------------|---------------------|
||o-------------------|---------------------|
||--------------------|---------------------|
||--------------------|-7-7-7-7--7--7-7-7---|
||o-2-2-2-2--2--2-2-2-|-5-5-5-5--5--5-5-5---|
||--0-0-0-0--0--0-0-0-|---------------------|
|
|   Gtr III
||--------0-(0)-------|-------0-(0)-------|
||o-----0-------------|-----3-------------|
||----1---------------|---2---------------|
||--------------------|-0-----------------|
||o-------------------|-------------------|
||--0-----------------|-------------------|


  C#m                         A
 -----------------------------------|
                                       4x
|-------------------|------------------||
|-------------------|-----------------o||
|-------------------|------------------||
|-6-6-6-6--6--6-6-6-|-6-6-6-6-2-2-2-2--||
|-4-4-4-4--4--4-4-4-|-4-4-4-4-0-0-0-0-o||
|-------------------|------------------||
|
|                                      4x
|-------------------|------------------||
|-------5-(5)-------|-----------------o||
|-----6-------------|------------------||
|---6---------------|------------------||
|-4-----------------|-----------------o||
|-------------------|------------------||


  E5                A5  C#5          B5
|-0---0---------0-0---|-4--4-------2-2---|
|-0---0---------2-2---|-5--5-------4-4---|
|-1---1---------2-2---|-6--6-x-x-x-4-4---|
|-2---2---x-x-x-2-2-x-|-6--6-x-x-x-4-4-x-|
|-2---2---x-x-x-0-0-x-|-4--4-x-x-x-2-2-x-|
|-0---0---x-x-x-----x-|----------------x-|
|
| Gtr II
|---------------------|------------------|
|---------------------|------------------|
|-------4---2---1-----|------------------|
|-----2-----------4---|-6--2---4---------|
|---2-----------------|------------------|
|---------------------|------------------|


   Verse 6
    B                 C#m       B
    Gtr II
                                     3x
||--0-----------0---|-4------4-------||
||o-2-----------2---|-5------4------o||
||--2-----------2---|-6------4--4----||
||--2-----------2---|-6--6-6-4--4-4--||
||o-0-----------0---|-4--4-4-2--2-2-o||
||--0---------------|----4-4---------||
|
|   Gtr III
|                                    3x
||--------------0---|-4--------------||
||o-------0-----2---|-5------7--7---o||
||--2-----2-----2---|-6------8--8----||
||--2-----2-----2---|-6------9--9----||
||o-0-0---0-0---0-0-|----4-4--------o||
||--0-0-0-0-0-0-0-0-|--------7--7----||


   Outro
    B5                 C#5              B5
||--0--0-------0-0---|-4--4--------2--2---|
||o-0--0-------2-2---|-5--5--------4--4---|
||--1--1-------2-2---|-6--6-x-x-x--4--4---|
||--2--2-x-x-x-2-2-x-|-6--6-x-x-x--4--4-x-|
||o-2--2-x-x-x-0-0-x-|-4--4-x-x-x--2--2-x-|
||--0--0-x-x-x-----x-|------------------x-|
|
||---------------0---|-4--4---------------|
||o-5--0-------5-2---|-5--5---------------|
||--4--1-------4-2---|-6--6-----6--8--8---|
||--6--2-2-------2---|-6--------6--9--9---|
||o----2-2-----------|----------4-11-11---|
||--0----0-----------|----4--------7--7-7-|


  E5               A5 C#5              B5
|-0--0-------0-0----|-4--4--------2--2------||
|-0--0-------2-2----|-5--5--------4--4-----o||
|-1--1-------2-2----|-6--6-x-x-x--4--4------||
|-2--2-x-x-x-2-2-x--|-6--6-x-x-x--4--4-x----||
|-2--2-x-x-x-0-0-x--|-4--4-x-x-x--2--2-x---o||
|-0--0-x-x-x-----x--|------------------x----||
|
|--------------0----|-4--4------------------||
|-5--0-------5-2----|-5--5-----------------o||
|-4--1-------4-2----|-6--6-----6--8--8------||
|-6--2-2-------2----|-6--------6--9--9------||
|----2-2------------|----------4-11-11-----o||
|-0----0------------|----4--------7--7-7----||


                                                  H.=H       Q=60
  E5               A5                      E5               A5 C#5   B5
|-0--0-------0-0----|-4--4--------2--2---|-0--0-------0-0----|-4--4--2----|
|-0--0-------2-2----|-5--5--------4--4---|-0--0-------2-2----|-5--5--4----|
|-1--1-------2-2----|-6--6-x-x-x--4--4---|-1--1-------2-2----|-6--6--4----|
|-2--2-x-x-x-2-2-x--|-6--6-x-x-x--4--4-x-|-2--2-x-x-x-2-2-x--|-6--6--4----|
|-2--2-x-x-x-0-0-x--|-4--4-x-x-x--2--2-x-|-2--2-x-x-x-0-0-x--|-4--4--2----|
|-0--0-x-x-x-----x--|------------------x-|-0--0-x-x-x-----x--|------------|
|
|--------------0----|-4--4---------------|--------------0----|-4--4-------|
|-5--0-------5-2----|-5--5---------------|-5--0-------5-2----|-5--5-------|
|-4--1-------4-2----|-6--6-----6--8--8---|-4--1-------4-2----|-6--6--8----|
|-6--2-2-------2----|-6--------6--9--9---|-6--2-2-------2----|-6-----9----|
|----2-2------------|----------4-11-11---|----2-2------------|------------|
|-0----0------------|----4--------7--7-7-|-0----0------------|----4--7----|


|-^0----*|
|-^0----*|
|-^1----*|
|-^2----*|
|-^2----*|
|-^0----*|
|
|-------*|
|--5----*|
|--4----*|
|--6----*|
|-------*|
|--0----*|

            
            
Suggest correction
Creating personal tab
Creating personal tab
You can edit any tab online and save it as your Personal.

You can edit, replace or remove any tab part or add personal notes – all changes will be seen only by you.

Personal tabs can be accessed anytime from any device, even offline.
Learn more »
Give kudos to tab author, rate the tab!
1 2 3 4 5
comments
print report bad tab
guest
You may want to rate the tab now too:
select rating
Wanna post a correction for this tab? Suggest correction