Oops, an error
Loading. Please wait.

Apart Tab

version 1
version 1

Whole song

Interactive

by huo
7 views 1 this week
no commentswrite comment
1 2 3 4 5
3 more votes to show rating
add to favorites
launch autoscroll
font size
0
reset
how to read this tab
guitar tuner
Autoscroll
slow
fast
+/-
esc
set tempo
stop
Help us to improve Ultimate-Guitar.com Take our survey!
×
Author
Apart by huo                                    
                                                                    
Guitar Left 


    S S S S S S S S S S S S    S S S S S S S S S S S S  
E|--------------------------|--------------------------|
B|--------------------------|--------------------------|
G|--------4---------4-------|--------------------------|
D|--------------------------|--------4---------4-------|
A|--4-----------4-------4---|--------------------------|
E|--------------------------|--4-----------4-------4---|


    S S S S S S S S S S S S    S S S S S S S S S  S S S  
e|--------------------------|---------------------------|
B|--------------------------|---------------------------|
G|--------------------------|---------------------------|
D|--------6---------6-------|--------6---------6S-L-4-L-|
A|--------------------------|---------------------------|
E|--5-----------5-------5---|--5-----------5---5S-L-4-L-|


                    |--3--|  |--3--|                              
    S S S S S S S S S  S  S  S  S  S    S S S S S S S S S  S S S  
e|-----------------------------------|---------------------------|
B|-----------------------------------|---------------------------|
G|--------4---------4h-6p-4h-6p-4h-6-|---------------------------|
D|-----------------------------------|--------4---L-----4S-L-9-L-|
A|--4-----------4--------------------|---------------------------|
E|-----------------------------------|--4---L-------4-L----------|


    S S S S S S S S S S S S     E.   E.   E.  E.     E.  E.  E  E  S S  
e|--------------------------|---------------------|--------------------|
B|--------------------------|--12---12---12-------|--4---4---4--4------|
G|--------------------------|--13---13---13-------|--4---4---4--4------|
D|--6-L-L-L---------6-L-----|--11---11---11-------|--------------------|
A|--------------------------|--12---12---12-------|--4---4---4--4--x-x-|
E|--------5-L-L-5-L-----x-x-|---------------------|--------------------|


    E.  E.  E  E  S S    E.  E.  E  E  S S    E.  E.  E  S S S S  
e|--------------------|--------------------|---------------------|
B|--------------------|--------------------|---------------------|
G|--4---4---4--4------|--6---6---6--6--6-6-|--6---6---6----------|
D|--4---4---4--4------|--6---6---6--6--6-6-|--6---6---6----------|
A|--------------------|--------------------|---------------------|
E|--4---4---4--4--x-x-|--5---5---5--5--5-5-|--5---5---5--x-x-x-x-|


            ^  v                 ^  v                 ^  v       
    E.  E.  E  E  S S    E.  E.  E  E  S S    E.  E.  E  E  S S  
e|----------0--0------|----------0--0------|----------0--0------|
B|--4---4---4--4------|----------0--0------|----------0--0------|
G|--4---4---4--4------|--4---4---4--4------|--6---6---6--6------|
D|--------------------|--4---4---4--4------|--6---6---6--6------|
A|--4---4---4--4--x-x-|--------------------|--------------------|
E|--------------------|--4---4---4--4--x-x-|--5---5---5--5--x-x-|


     E.   E.   E   E  S S    S S S S S S S S S  S  E   
e|------------------------|---------------------------|
B|--12---12---12--12----L-|--4-4-4-4---4-4-4-4-(0)-L--|
G|--13---13---13--13----L-|--4-4-4-4---4-4-4-4-(0)-L--|
D|--11---11---11--11----L-|---------------------------|
A|--12---12---12--12--L-L-|--4-4-4-4---4-4-4-4-(0)-L--|
E|------------------------|---------------------------|


    S S S S S S S S S  S  E     S S S S S S S S S  S  E     E.  E.  E  S S S S  
e|---------------------------|---------------------------|----------0----L-L-L-|
B|---------------------------|---------------------------|-------------0-L-L-L-|
G|--4-4-4-4---4-4-4-4-(0)-L--|--6-6-6-6---6-6-6-6-(0)-L--|--6---6------------L-|
D|--4-4-4-4---4-4-4-4-(0)-L--|--6-6-6-6---6-6-6-6-(0)-L--|--6---6--------------|
A|---------------------------|---------------------------|---------------------|
E|--4-4-4-4---4-4-4-4-(0)-L--|--5-5-5-5---5-5-5-5-(0)-L--|--5---5--------------|


            ^  v                 ^  v                 ^  v       
    E.  E.  E  E  S S    E.  E.  E  E  S S    E.  E.  E  E  S S  
e|----------0--0------|----------0--0------|----------0--0------|
B|--4---4---4--4------|----------0--0------|----------0--0------|
G|--4---4---4--4------|--4---4---4--4------|--6---6---6--6------|
D|--------------------|--4---4---4--4------|--6---6---6--6------|
A|--4---4---4--4--x-x-|--------------------|--------------------|
E|--------------------|--4---4---4--4--x-x-|--5---5---5--5--x-x-|


     E.   E.   E   E  S S    H.              H.              H.            
e|------------------------|---------------|---------------|---------------|
B|--12---12---12--12----L-|--4------------|---------------|---------------|
G|--13---13---13--13----L-|--4------------|--4------------|--6------------|
D|--11---11---11--11----L-|---------------|--4------------|--6------------|
A|--12---12---12--12--L-L-|--4------------|---------------|---------------|
E|------------------------|---------------|--4------------|--5------------|


    H.              H.              H.              H.            
e|---------------|---------------|---------------|---------------|
B|---------------|--4------------|---------------|---------------|
G|--L------------|--4------------|--4------------|--6------------|
D|--L------------|---------------|--4------------|--6------------|
A|---------------|--4------------|---------------|---------------|
E|--L------------|---------------|--4------------|--5------------|


     H.              H.              H.              H.            
e|----------------|---------------|---------------|---------------|
B|--12------------|--4------------|---------------|---------------|
G|--13------------|--4------------|--4------------|--6------------|
D|--11------------|---------------|--4------------|--6------------|
A|--12------------|--4------------|---------------|---------------|
E|----------------|---------------|--4------------|--5------------|


    H.              H.              H.              H.              H.            
e|---------------|---------------|---------------|---------------|---------------|
B|---------------|--4------------|---------------|---------------|---------------|
G|--L------------|--4------------|--4------------|--6------------|--L------------|
D|--L------------|---------------|--4------------|--6------------|--L------------|
A|---------------|--4------------|---------------|---------------|---------------|
E|--L------------|---------------|--4------------|--5------------|--L------------|


    E.  E.  E  E  S S    E.  E.  E  E  S S    E.  E.  E  E  S S  
e|--------------------|--------------------|--------------------|
B|--4---4---4--4------|--------------------|--------------------|
G|--4---4---4--4------|--4---4---4--4------|--6---6---6--6--6-6-|
D|--------------------|--4---4---4--4------|--6---6---6--6--6-6-|
A|--4---4---4--4--x-x-|--------------------|--------------------|
E|--------------------|--4---4---4--4--x-x-|--5---5---5--5--5-5-|


                                  ^  v                 ^  v       
    E.  E.  E  S S S S    E.  E.  E  E  S S    E.  E.  E  E  S S  
e|---------------------|----------0--0------|----------0--0------|
B|---------------------|--4---4---4--4------|----------0--0------|
G|--6---6---6----------|--4---4---4--4------|--4---4---4--4------|
D|--6---6---6----------|--------------------|--4---4---4--4------|
A|---------------------|--4---4---4--4--x-x-|--------------------|
E|--5---5---5--x-x-x-x-|--------------------|--4---4---4--4--x-x-|


            ^  v                                  PM PM PM PM   PM PM PM PM       
    E.  E.  E  E  S S     E.   E.   E   E  S S    S  S  S  S  S S  S  S  S  S E   
e|----------0--0------|------------------------|---------------------------------|
B|----------0--0------|--12---12---12--12----L-|--4--4--4--4----4--4--4--4-------|
G|--6---6---6--6------|--13---13---13--13----L-|--4--4--4--4----4--4--4--4-------|
D|--6---6---6--6------|--11---11---11--11----L-|---------------------------------|
A|--------------------|--12---12---12--12--L-L-|--4--4--4--4----4--4--4--4-------|
E|--5---5---5--5--x-x-|------------------------|---------------------------------|


    PM PM PM PM   PM PM PM PM         PM PM PM PM   PM PM PM PM       
    S  S  S  S  S S  S  S  S  S E     S  S  S  S  S S  S  S  S  E  S  
e|---------------------------------|---------------------------------|
B|---------------------------------|---------------------------------|
G|--4--4--4--4----4--4--4--4-------|--6--6--6--6----6--6--6--6-------|
D|--4--4--4--4----4--4--4--4-------|--6--6--6--6----6--6--6--6-------|
A|---------------------------------|---------------------------------|
E|--4--4--4--4----4--4--4--4-------|--5--5--5--5----5--5--5--5-------|


                                    ^  v                 ^  v       
    E.  E.  E.  E.  Q       E.  E.  E  E  S S    E.  E.  E  E  S S  
e|-----------------------|----------0--0------|----------0--0------|
B|-----------------------|--4---4---4--4------|----------0--0------|
G|--6---6---6------------|--4---4---4--4------|--4---4---4--4------|
D|--6---6---6------------|--------------------|--4---4---4--4------|
A|-----------------------|--4---4---4--4--x-x-|--------------------|
E|--5---5---5------------|--------------------|--4---4---4--4--x-x-|


            ^  v                                  PM PM                     
    E.  E.  E  E  S S     E.   E.   E   E  S S    E  E  S S E  E  E  E  E   
E|----------0--0------|------------------------|---------------------------|
B|----------0--0------|--12---12---12--12----L-|---------------------------|
G|--6---6---6--6------|--13---13---13--13----L-|---------------------------|
D|--6---6---6--6------|--11---11---11--11----L-|--------6-9-6--------------|
A|--------------------|--12---12---12--12--L-L-|-----7---------7-----------|
E|--5---5---5--5--x-x-|------------------------|--9---------------9--4--0--|


                                  PM PM                     
    S S E  E  E  E  E  E   E      E  E  S S E  E  E  E  E   
e|-----------------------------|---------------------------|
B|-----------------------------|---------------------------|
G|-----------------------------|---------------------------|
D|------4-----6--L--6--6--(0)--|--------6-9-6--------------|
A|-----------------------------|-----7---------7-----------|
E|--x-x-4-----5--L--5--5--(0)--|--9---------------9--4--0--|


    PM PM PM PM PM PM            PM PM                     
    E  E  E  E  E  E  E   S S    E  E  S S E  E  E  E  E   
e|----------------------------|---------------------------|
B|----------------------------|---------------------------|
G|----------------------------|---------------------------|
D|--------7--------9-----11-L-|--------6-9-6--------------|
A|-----5--------7---------9-L-|-----7---------7-----------|
E|--7--------9--------x--11-L-|--9---------------9--4--0--|


                                         PM PM             
    S S E  E  E  E  E  E   E      Q.     S  S  E  Q    E   
e|-----------------------------|--------------------------|
B|-----------------------------|--------------------------|
G|-----------------------------|--------------------------|
D|------4-----6--L--6--6--(0)--|---------------2----------|
A|-----------------------------|--------------------------|
E|--x-x-4-----5--L--5--5--(0)--|--2------2--2-----2----2--|


                                  PM PM                     
                   3   3   3                                
    E  Q    S S E  E.  E.  E.     E  E  S S E  E  E  E  E   
e|-----------------------------|---------------------------|
B|-----------------------------|---------------------------|
G|-----------------------------|---------------------------|
D|--------------2--4---4---4---|--------6-9-6--------------|
A|-----------------------------|-----7---------7-----------|
E|--L--2----x-x----------------|--9---------------9--4--0--|


    S S E  E  E  E  E  E   E      E  E  S S E  E  E  E  E   
e|-----------------------------|---------------------------|
B|-----------------------------|---------------------------|
G|-----------------------------|---------------------------|
D|------4-----6--L--6--6--(0)--|--------6-9-6--------------|
A|-----------------------------|---------------7-----------|
E|--x-x-4-----5--L--5--5--(0)--|------------------9--4--0--|


    PM PM PM  PM PM  PM            PM PM                     
    E  E  E   E  E   E  E   S S    E  E  S S E  E  E  E  E   
e|------------------------------|---------------------------|
B|------------------------------|---------------------------|
G|------------------------------|---------------------------|
D|--------9---------11-----13-L-|--------6-9-6--------------|
A|-----7---------9---------11-L-|-----7---------7-----------|
E|--9--------11---------x--12-L-|--9---------------9--4--0--|


                                         PM PM             
    S S E  E  E  E  E  E   E      Q.     S  S  E  Q    E   
e|-----------------------------|--------------------------|
B|-----------------------------|--------------------------|
G|-----------------------------|--------------------------|
D|------4-----6--L--6--6--(0)--|---------------2----------|
A|-----------------------------|--------------------------|
E|--x-x-4-----5--L--5--5--(0)--|--2------2--2-----2----2--|


                   3   3   3                                              
    E  Q    S S E  E.  E.  E.     E  H.           E     W                 
e|-----------------------------|---------------------|-------------------|
B|-----------------------------|---------------------|-------------------|
G|-----------------------------|---------------------|-------------------|
D|--------------2--4---4---4---|-----2------------L--|--L----------------|
A|-----------------------------|---------------------|-------------------|
E|--L--2----x-x----------------|--x--1------------L--|--L----------------|


           PM PM                                                                 
                                              3   3   3                          
    Q.     S  S  E  Q    E     E  Q    S S E  E.  E.  E.     E  H.           E   
e|--------------------------|-----------------------------|---------------------|
B|--------------------------|-----------------------------|---------------------|
G|--------------------------|-----------------------------|---------------------|
D|---------------2----------|--------------2--4---4---4---|-----2------------L--|
A|--------------------------|-----------------------------|---------------------|
E|--2------2--2-----2----2--|--L--2----x-x----------------|--x--1------------L--|


                                    PM PM             
    E  E.  E.  E.  E.  E     Q.     S  S  E  Q    E   
e|-------------0---L---L--|--------------------------|
B|---------0-----------L--|--------------------------|
G|-----0---------------L--|--------------------------|
D|--L------------------L--|---------------2----------|
A|---------------------L--|--------------------------|
E|--L------------------L--|--2------2--2-----2----2--|


                   3   3   3                          
    E  Q    S S E  E.  E.  E.     E  H.           E   
e|-----------------------------|---------------------|
B|-----------------------------|---------------------|
G|-----------------------------|---------------------|
D|--------------2--4---4---4---|-----2------------L--|
A|-----------------------------|---------------------|
E|--L--2----x-x----------------|--x--1------------L--|


         NH    NH    NH                   PM PM             
    E    E.    E.    E.  E.  E     Q.     S  S  E  Q    E   
e|-----------------<>5---L---L--|--------------------------|
B|-----------<>5-------------L--|--------------------------|
G|-----<>5-------------------L--|--------------------------|
D|--L------------------------L--|---------------2----------|
A|---------------------------L--|--------------------------|
E|--L------------------------L--|--2------2--2-----2----2--|


                   3   3   3                                              
    E  Q    S S E  E.  E.  E.     E  H.           E     W                 
e|-----------------------------|---------------------|-------------------|
B|-----------------------------|---------------------|-------------------|
G|-----------------------------|---------------------|-------------------|
D|--------------2--4---4---4---|-----2------------L--|--L----------------|
A|-----------------------------|---------------------|-------------------|
E|--L--2----x-x----------------|--x--1------------L--|--L----------------|


    ^                                       PM    PM        PM  
    W                   W                   E  E  E  E   E  E   
e|--0----------------|--L----------------|---------------------|
B|--0----------------|--L----------------|---------------------|
G|--0----------------|--L----------------|---------------------|
D|--2----------------|--L----------------|-----2-----2s--5-----|
A|-------------------|-------------------|---------------------|
E|--1----------------|--L----------------|--1-----1---------5--|


                           PM    PM        PM           PM PM PM PM       
    E  S S S S E  E  E     E  E  E  E   E  E     E  S S S  S  S  S  Q     
e|----------------------|---------------------|--------------------------|
B|----------------------|---------------------|--------------------------|
G|---------4-7-4--------|---------------------|--------------------------|
D|--5-------------5-----|-----2-----2s--5-----|--5------------------3----|
A|-------------------7--|---------------------|--------------------------|
E|--5-------------------|--1-----1---------5--|--5------3--3--3--3--3----|


    PM    PM        PM                           PM    PM            
    E  E  E  E   E  E     E  S S S S E  E  E     E  E  E  E   E  E   
e|---------------------|----------------------|---------------------|
B|---------------------|----------------------|---------------------|
G|---------------------|---------4-7-4--------|---------------------|
D|-----2-----2s--5-----|--5-------------5-----|-----2-----2s--5-----|
A|---------------------|-------------------7--|---------------------|
E|--1-----1---------5--|--5-------------------|--1-----1------------|


                              PM    PM        PM                         
    |--3--|  |--3--|                                                     
    E  E  E  E  E  E  Q       E  E  E  E   E  E     E  S S S S E  E  E   
e|-------------------------|---------------------|----------------------|
B|-------------------------|---------------------|----------------------|
G|-------------------------|---------------------|---------4-7-4--------|
D|--5--3--2----------------|-----2-----2s--5-----|--5-------------5-----|
A|-----------5--3--2--3----|---------------------|-------------------7--|
E|-------------------------|--1-----1---------5--|--5-------------------|


    PM    PM        PM           PM PM PM PM         PM    PM        PM  
    E  E  E  E   E  E     E  S S S  S  S  S  Q       E  E  E  E   E  E   
e|---------------------|--------------------------|---------------------|
B|---------------------|--------------------------|---------------------|
G|---------------------|--------------------------|---------------------|
D|-----2-----2s--5-----|--5------------------3----|-----2-----2s--5-----|
A|---------------------|--------------------------|---------------------|
E|--1-----1---------5--|--5------3--3--3--3--3----|--1-----1---------5--|


                           PM    PM        PM                            
                                                 |--3--|  |--3--|        
    E  S S S S E  E  E     E  E  E  E   E  E     E  E  E  E  E  E  Q     
e|----------------------|---------------------|-------------------------|
B|----------------------|---------------------|-------------------------|
G|---------4-7-4--------|---------------------|-------------------------|
D|--5-------------5-----|-----2-----2s--5-----|--5--3--2----------------|
A|-------------------7--|---------------------|-----------5--3--2--3----|
E|--5-------------------|--1-----1---------5--|-------------------------|


    PM    PM                                           PM    PM                
    E  E  E  E  E  E  Q       Q    S E  E.  E.  E.     E  E  E  E  E  E  Q     
e|-------------------------|------------------------|-------------------------|
B|-------------------------|------------------------|-------------------------|
G|-------------------------|------------------------|-------------------------|
D|-----2-----2-------------|------------5---3---2---|-----2-----2-------------|
A|-------------------------|------------------------|-------------------------|
E|--1-----1-----0----------|---------x--------------|--1-----1-----0----------|


                              PM    PM                                         
    Q    S S S E.  E.  E.     E  E  E  E  E  E  Q       Q    S E  E.  E.  E.   
e|-------------------------|-------------------------|------------------------|
B|-------------------------|-------------------------|------------8---6---5---|
G|-------------------------|-------------------------|------------------------|
D|-------------------------|-----2-----2-------------|------------5---3---2---|
A|-------------------------|-------------------------|------------------------|
E|---------x-x-1---3---5---|--1-----1-----0----------|---------x--------------|

  
    PM    PM                                        PM    PM        PM  
    E  E  E  E  E  E  E   E     W                   E  E  E  E   E  E   
e|---------------------------|-------------------|---------------------|
B|---------------------------|-------------------|---------------------|
G|---------------------------|-------------------|---------------------|
D|-----2-----2--------2s--3--|--L----------------|-----2-----2s--5-----|
A|---------------------------|-------------------|---------------------|
E|--1-----1-----0-----1---3--|--L----------------|--1-----1---------5--|


                           PM    PM        PM           PM PM PM PM       
    E  S S S S E  E  E     E  E  E  E   E  E     E  S S S  S  S  S  Q     
e|----------------------|---------------------|--------------------------|
B|----------------------|---------------------|--------------------------|
G|---------4-7-4--------|---------------------|--------------------------|
D|--5-------------5-----|-----2-----2s--5-----|--5------------------3----|
A|-------------------7--|---------------------|--------------------------|
E|--5-------------------|--1-----1---------5--|--5------3--3--3--3--3----|


    PM    PM        PM                           PM    PM            
    E  E  E  E   E  E     E  S S S S E  E  E     E  E  E  E   E  E   
e|---------------------|----------------------|---------------------|
B|---------------------|----------------------|---------------------|
G|---------------------|---------4-7-4--------|---------------------|
D|-----2-----2s--5-----|--5-------------5-----|-----2-----2s--5-----|
A|---------------------|-------------------7--|---------------------|
E|--1-----1---------5--|--5-------------------|--1-----1------------|


                              PM    PM        PM                         
    |--3--|  |--3--|                                                     
    E  E  E  E  E  E  Q       E  E  E  E   E  E     E  S S S S E  E  E   
e|-------------------------|---------------------|----------------------|
B|-------------------------|---------------------|----------------------|
G|-------------------------|---------------------|---------4-7-4--------|
D|--5--3--2----------------|-----2-----2s--5-----|--5-------------5-----|
A|-----------5--3--2--3----|---------------------|-------------------7--|
E|-------------------------|--1-----1---------5--|--5-------------------|


    PM    PM        PM           PM PM PM PM         PM    PM        PM  
    E  E  E  E   E  E     E  S S S  S  S  S  Q       E  E  E  E   E  E   
e|---------------------|--------------------------|---------------------|
B|---------------------|--------------------------|---------------------|
G|---------------------|--------------------------|---------------------|
D|-----2-----2s--5-----|--5------------------3----|-----2-----2s--5-----|
A|---------------------|--------------------------|---------------------|
E|--1-----1---------5--|--5------3--3--3--3--3----|--1-----1---------5--|


                                          PM PM                     
    E  S S S S E  E  E     E  E  E  E     E  E  S S E  E  E  E  E   
e|----------------------|--------------|---------------------------|
B|----------------------|--------------|---------------------------|
G|---------4-7-4--------|--------6--9--|---------------------------|
D|--5-------------5-----|-----7--------|--------6-9-6--------------|
A|-------------------7--|--9-----------|-----7---------7-----------|
E|--5-------------------|--------------|--9---------------9--4--0--|


    S S E  E  E  E  E  E   E            S S E  E  E  E  E  E  E   
e|-----------------------------|-----|---------------------------|
B|-----------------------------|-----|---------------------------|
G|-----------------------------|-----|---------------------------|
D|------4-----6-----6--6--(0)--|-----|------6-----4--------------|
A|-----------------------------|-----|---------------------------|
E|--x-x-4-----5-----5--5--(0)--|-----|--x-x-5-----4--------------|


           PM PM                                           
                                              3   3   3    
    Q.     S  S  E  Q    E     E  Q    S S E  E.  E.  E.   
e|--------------------------|-----------------------------|
B|--------------------------|-----------------------------|
G|--------------------------|-----------------------------|
D|---------------2----------|--------------2--4---4---4---|
A|--------------------------|-----------------------------|
E|--2------2--2-----2----2--|--L--2----x-x----------------|


    PM PM                                                   
    E  E  S S E  E  E  E  E     S S E  E  E  E  E  E   E    
e|---------------------------|-----------------------------|
B|---------------------------|-----------------------------|
G|---------------------------|-----------------------------|
D|--------6-9-6--------------|------4-----6--L--6--6--(0)--|
A|-----7---------7-----------|-----------------------------|
E|--9---------------9--4--0--|--x-x-4-----5--L--5--5--(0)--|


    PM PM                                                 
    E  E  S S E  E  E  E  E     S S E  E  E  E  E  E  E   
e|---------------------------|---------------------------|
B|---------------------------|---------------------------|
G|---------------------------|------------------4--4--4--|
D|--------6-9-6--------------|------6-----4--------------|
A|-----7---------7-----------|------------------4--4--4--|
E|--9---------------9--4--0--|--x-x-5-----4--------------|


    PM PM                                                   
    E  E  S S E  E  E  E  E     S S E  E  E  E  E  E   E    
e|---------------------------|-----------------------------|
B|---------------------------|-----------------------------|
G|---------------------------|-----------------------------|
D|--------6-9-6--------------|------4-----6--L--6--6--(0)--|
A|-----7---------7-----------|-----------------------------|
E|--9---------------9--4--0--|--x-x-4-----5--L--5--5--(0)--|


           PM PM                                           
                                              3   3   3    
    Q.     S  S  E  Q    E     E  Q    S S E  E.  E.  E.   
e|--------------------------|-----------------------------|
B|--------------------------|-----------------------------|
G|--------------------------|-----------------------------|
D|---------------2----------|--------------2--4---4---4---|
A|--------------------------|-----------------------------|
E|--2------2--2-----2----2--|--L--2----x-x----------------|


    S S S S S S S S S S S S S S S S    S S E  E  E  E  E  E  E   
e|----------------------------------|---------------------------|
B|----------------------------------|---------------------------|
G|----------------------------------|---------------------------|
D|----------6-6-9-9-6-6-------------|------4-----6--L--6--6--6--|
A|------7-7-------------7-7---------|---------------------------|
E|--9-9---------------------9-9-4-4-|--0-0-4-----5--L--5--5--5--|


    S S S S S S S S S S S S S S S S    S S E  E  E  E  E  E  E   
e|----------------------------------|---------------------------|
B|----------------------------------|---------------------------|
G|----------------------------------|------------------4--4--4--|
D|----------6-6-9-9-6-6-------------|------6-----4--------------|
A|------7-7-------------7-7---------|------------------4--4--4--|
E|--9-9---------------------9-9-4-4-|--0-0-5-----4--------------|


    S S S S S S S S S S S S S S S S    S S E  E  E  E  E  E  E   
e|----------------------------------|---------------------------|
B|----------------------------------|---------------------------|
G|----------------------------------|---------------------------|
D|----------6-6-9-9-6-6-------------|------4-----6--L--6--6--6--|
A|------7-7-------------7-7---------|---------------------------|
E|--9-9---------------------9-9-4-4-|--0-0-4-----5--L--5--5--5--|


           PM PM                                                             
                                              3   3   3                      
    Q.     S  S  E  Q    E     E  Q    S S E  E.  E.  E.     E  E  H         
e|--------------------------|-----------------------------|-----------------|
B|--------------------------|-----------------------------|--4--------------|
G|--------------------------|-----------------------------|--4--------------|
D|---------------2----------|--------------2--4---4---4---|-----------------|
A|--------------------------|-----------------------------|--4--------------|
E|--2------2--2-----2----2--|--L--2----x-x----------------|-----------------|


    E  E  H           Q    E  E  E  E     E  E  E  E  S E.     E.  E.  E  E  S S  
e|-----------------|-------------------|-----------0--------|--------------------|
B|-----------------|-------------------|--------------0-----|--4---4---4--4------|
G|--4--------------|--6----------------|--------------6-----|--4---4---4--4------|
D|--4--------------|--6----6--6--6--6--|--6--6--6-----6-----|--------------------|
A|-----------------|-------------------|--------------------|--4---4---4--4--x-x-|
E|--4--------------|--5----5--5--5--5--|--5--5--5-----5-----|--------------------|


    E.  E.  E  E  S S    E.  E.  E  E  S S    E.  E.  E  S S S S  
e|--------------------|--------------------|---------------------|
B|--------------------|--------------------|---------------------|
G|--4---4---4--4------|--6---6---6--6--6-6-|--6---6---6----------|
D|--4---4---4--4------|--6---6---6--6--6-6-|--6---6---6----------|
A|--------------------|--------------------|---------------------|
E|--4---4---4--4--x-x-|--5---5---5--5--5-5-|--5---5---5--x-x-x-x-|


            ^  v                 ^  v                 ^  v       
    E.  E.  E  E  S S    E.  E.  E  E  S S    E.  E.  E  E  S S  
e|----------0--0------|----------0--0------|----------0--0------|
B|--4---4---4--4------|----------0--0------|----------0--0------|
G|--4---4---4--4------|--4---4---4--4------|--6---6---6--6------|
D|--------------------|--4---4---4--4------|--6---6---6--6------|
A|--4---4---4--4--x-x-|--------------------|--------------------|
E|-------------------|--4---4---4--4--x-x-|--5---5---5--5--x-x-|


     E.   E.   E   E  S S    S S S S S S S S S S E     S S S S S S S S S S E   
e|------------------------|-------------------------|-------------------------|
B|--12---12---12--12----L-|--4-4-4-4-L-4-4-4-4-0-L--|-------------------------|
G|--13---13---13--13----L-|--4-4-4-4-L-4-4-4-4-0-L--|--4-4-4-4-L-4-4-4-4-0-L--|
D|--11---11---11--11----L-|-------------------------|--4-4-4-4-L-4-4-4-4-0-L--|
A|--12---12---12--12--L-L-|--4-4-4-4-L-4-4-4-4-0-L--|-------------------------|
E|-----------------------|-------------------------|--4-4-4-4-L-4-4-4-4-0-L--|


                                                          ^  v       
    S S S S S S S S S S E     E.  E.  E  S S S S    E.  E.  E  E  S S  
e|-------------------------|----------0----L-L-L-|----------0--0------|
B|-------------------------|-------------0-L-L-L-|--4---4---4--4------|
G|--6-6-6-6-L-6-6-6-6-0-L--|--6---6------------L-|--4---4---4--4------|
D|--6-6-6-6-L-6-6-6-6-0-L--|--6---6--------------|--------------------|
A|-------------------------|---------------------|--4---4---4--4--x-x-|
E|--5-5-5-5-L-5-5-5-5-0-L--|--5---5--------------|--------------------|


            ^  v                 ^  v                                
    E.  E.  E  E  S S    E.  E.  E  E  S S     E.   E.   E   E  S S  
e|----------0--0------|----------0--0------|------------------------|
B|----------0--0------|----------0--0------|--12---12---12--12----L-|
G|--4---4---4--4------|--6---6---6--6------|--13---13---13--13----L-|
D|--4---4---4--4------|--6---6---6--6------|--11---11---11--11----L-|
A|--------------------|--------------------|--12---12---12--12--L-L-|
E|--4---4---4--4--x-x-|--5---5---5--5--x-x-|------------------------|


    H.             
e|---------------||
B|--L------------||
G|--L------------||
D|--L------------||
A|--L------------||
E|---------------||



************************************

Duration Legend
---------------
W - whole
H - half
Q - quarter
E - 8th
S - 16th
. - note dotted
|-n-|  - n-tuplets


Tablature Legend
----------------
L - tied note
x - dead note
(n) - ghost note
> - accentuded note
NH - natural harmonic
h - hammer on
p - pull off
b - bend
S - shift slide
s - 
S - slap
P - pop
< - fade in
^ - brush up
v - brush down

************************************ 
Suggest correction
Give kudos to tab author, rate the tab!
1 2 3 4 5
comments
print report bad tab
guest
You may want to rate the tab now too:
select rating
Wanna post a correction for this tab? Suggest correction