Oops, an error
Loading. Please wait.

Chance tab

version 1
version 1

Whole song

  • Tab made by guitarist of band.

Interactive

by huo
13 views 1 this week
no commentswrite comment
1 2 3 4 5
3 more votes to show rating
add to favorites
×
Save as Personal and add changes to this tab that will be seen only by you. Learn more ›
×
You can save this tab as Personal to edit and correct it or add notes. All changes will be seen only by you. Learn more »
launch autoscroll
font size
0
reset
how to read this tab
guitar tuner
edit
Autoscroll
slow
fast
+/-
esc
set tempo
stop
Author
Difficulty
About this tab version
Tab made by guitarist of band. Was this info helpful? Yes No
"Chance" - huo

Sques EP (2016)


huomusic.bandcamp.com



             E  E  E  E  E  E  E  E     E  E  E  E  E  E  E  E   
e||-------|--------------------------|--------------------------|
B||-------|--------------------------|--------------------------|
G||-------|--------------------------|--L-----------------------|
D||-------|--7--7--7--7--7--7-----4--|--L--4-----4--L--4--4--4--|
A||-------|--3--3--3--3--3--3-----2--|--L--2-----2--L--2--2--2--|
E||-------|--------------------------|--------------------------|


    E  E  E  E  E  E  E   E     E  E  E  E  E  E  E  E   
e|---------------------------|-----------0--L--0--0--0--|
B|---------------------------|-----------0--L--0--0--0--|
G|---------------------------|-----7-----7--L--7--7--7--|
D|--7--7--7--7--7--7-----/9--|--L--9-----9--L--9--9--9--|
A|--3--3--3--3--3--3-----/7--|--L--7-----7--L--7--7--7--|
E|---------------------------|--------------------------|


    E  E  E  E  E  E  E  E     E  E  E  E  E  E  E  E     Q    E  Q    E  Q     
e|--------------------------|--------------------------|-----------------------|
B|--------------------------|--------------------------|-----------------------|
G|--------------------------|--------------------------|----------0----L-------|
D|--7--7--7--7--7--7-----4--|--L--4-----4--L--4--4--4--|-------4--L----4-------|
A|--3--3--3--3--3--3-----2--|--L--2-----2--L--2--2--2--|-----------------------|
E|--------------------------|--------------------------|--3------------L--5----|


             PM PM PM PM                                  
    E  Q    E  S  S  S  S  Q       E  E  E  E  E  E  E  E   
e|------------------------------|--------------------------|
B|------------------------------|--------------------------|
G|-----0----L--------------0----|--------------------------|
D|--4--L----4--------------4----|--7--7--7--7--7--7-----4--|
A|------------------------------|--3--3--3--3--3--3-----2--|
E|----------L--5--5--5--5--5----|--------------------------|


    E  E  E  E  E  E  E  E     E  E  E  E  E  E  E   E   
e|--------------------------|---------------------------|
B|--------------------------|---------------------------|
G|--------------------------|---------------------------|
D|--L--4-----4--L--4--4--4--|--7--7--7--7--7--7-----/9--|
A|--L--2-----2--L--2--2--2--|--3--3--3--3--3--3-----/7--|
E|--------------------------|---------------------------|


    E  E  E  E  E  E  E  E     E  E  E  E  E  E  E  E   
e|-----------0--L--0--0--0--|--------------------------|
B|-----------0--L--0--0--0--|--------------------------|
G|-----7-----7--L--7--7--7--|--------------------------|
D|--L--9-----9--L--9--9--9--|--7--7--7--7--7--7-----4--|
A|--L--7-----7--L--7--7--7--|--3--3--3--3--3--3-----2--|
E|--------------------------|--------------------------|


    E  E  E  E  E  E  E  E     Q    E  Q    E  Q     
e|--------------------------|-----------------------|
B|--------------------------|-----------------------|
G|--------------------------|----------0----L-------|
D|--L--4-----4--L--4--4--4--|-------4--L----4-------|
A|--L--2-----2--L--2--2--2--|-----------------------|
E|--------------------------|--3------------L--5----|


               PM PM PM PM                                                      
    E  Q    E  S  S  S  S  Q       Q    E  Q.     Q       E  Q.     Q    E  E   
e|------------------------------|----------------------|-----------------------|
B|------------------------------|----------------------|-----------------------|
G|-----0----L--------------0----|----------0------L----|--L--0-----------L--0--|
D|--4--L----4--------------4----|-------7---------L----|--7--L------L----7-----|
A|------------------------------|--3-------L------3----|-----L------3-------L--|
E|----------L--5--5--5--5--5----|----------------------|-----------------------|


    Q    E  Q.     Q       E  Q.     E  E  E  E     Q    E  Q.     Q     
e|----------------------|------------------------|----------------------|
B|----------------------|------------------------|----------------------|
G|-------L--0-----------|--L--0---------L--0--L--|-------L--0------L----|
D|--L----4--L------L----|--4---------L--4--L--4--|--L----7---------L----|
A|--2-------L------2----|-----L------2--L-----L--|--3-------L------3----|
E|----------------------|------------------------|----------------------|

 
                                                               PM PM PM PM       
    E  Q.     Q    E  E     Q    E  Q    E  Q       E  Q    E  S  S  S  S  Q     
e|-----------------------|-----------------------|------------------------------|
B|-----------------------|-----------------------|------------------------------|
G|--L--0-----------L--0--|----------0----L-------|-----0----L--------------0----|
D|--7--L------L----7--L--|-------4--L----4-------|--4--L----4--------------4----|
A|-----L------3-------L--|-----------------------|------------------------------|
E|-----------------------|--3------------L--5----|----------L--5--5--5--5--5----|


    Q    E  Q.     Q       E  Q.     Q    E  E     Q    E  Q.     Q     
e|----------------------|-----------------------|----------------------|
B|----------------------|-----------------------|----------------------|
G|----------0------L----|--L--0-----------L--0--|-------L--0-----------|
D|-------7---------L----|--7--L------L----7-----|--L----4--L------L----|
A|--3-------L------3----|-----L------3----L-----|--2-------L------2----|
E|----------------------|-----------------------|----------------------|


    E  Q.     E  E  E  E     Q    E  Q.     Q       E  Q.     Q    E  E   
e|------------------------|----------------------|-----------------------|
B|------------------------|----------------------|-----------------------|
G|--L--0---------L--0--L--|-------L--0------L----|--L--0-----------L--0--|
D|--4---------L--4--L--4--|--L----7---------L----|--7--L------L----7--L--|
A|-----L------2--L-----L--|--3-------L------3----|-----L------3-------L--|
E|------------------------|----------------------|-----------------------|


                                       PM PM PM PM       
    Q    E  Q    E  Q       E  Q    E  S  S  S  S  Q     
e|-----------------------|------------------------------|
B|-----------------------|------------------------------|
G|----------0----L-------|-----0----L--------------0----|
D|-------4--L----4-------|--4--L----4--------------4----|
A|-----------------------|------------------------------|
E|--3------------L--5----|----------L--5--5--5--5--5----|


    PM PM PM PM         PM PM PM            
    S  S  S  S  E  Q    S  S  S  S E  Q     
e|-----------------------------------------|
B|-----------------------------------------|
G|-----------------0------------------0----|
D|--------------7------------------7-------|
A|--3--3--3--3----------3--3--3--L---------|
E|-----------------------------------------|


    PM PM PM PM         PM PM PM             PM PM PM PM         PM PM PM        
    S  S  S  S  E  Q    S  S  S  S E  Q      S  S  S  S  E  Q    S  S  S  S E  Q    
e|-----------------------------------------|-----------------------------------------|
B|-----------------------------------------|-----------------------------------------|
G|-----------------0------------------0----|-----------------0------------------0----|
D|--------------7------------------7-------|--------------4------------------4-------|
A|--3--3--3--3----------3--3--3--L---------|--2--2--2--2----------2--2--2--L---------|
E|-----------------------------------------|-----------------------------------------|



    PM PM PM PM         PM PM PM               PM PM PM PM         PM PM PM       
    S  S  S  S  E  Q    S  S  S  S E  E  E     S  S  S  S  E  Q    S  S  S  S E   Q    
e|------------------------------------------|------------------------------------------|
B|------------------------------------------|------------------------------------------|
G|-----------------0------------------0-----|-----------------0------------------------|
D|--------------4------------------4-----4--|--------------7------------------7S--9----|
A|--2--2--2--2----------2--2--2--L----------|--3--3--3--3----------3--3--3--L----------|
E|------------------------------------------|------------------------------------------|


    PM PM PM PM         PM PM PM            
    S  S  S  S  E  Q    S  S  S  S E  Q     
e|-----------------------------------------|
B|-----------------------------------------|
G|-----------------0------------------0----|
D|--------------7------------------7-------|
A|--3--3--3--3----------3--3--3--L---------|
E|-----------------------------------------|


    PM PM PM PM         PM PM PM                                             
    S  S  S  S  E  Q    S  S  S  S E  Q       E  E  E  E  E  E  E  E  E  E   
e|-----------------------------------------|--------------------------------|
B|-----------------------------------------|--------------------------------|
G|-----------------0------------------0----|-----------0-----------L--0--L--|
D|--------------4------------------4-------|-----4-----L--4--L--4-----L--4--|
A|--2--2--2--2----------2--2--2--L---------|--2--L--2-----L--2--L--2--L--L--|
E|-----------------------------------------|--------------------------------|


    E  E  E  E  E  E  E  E     E  E  E  E  E  E  E  E   
e|--------------------------|--------------------------|
B|--------------------------|--------------------------|
G|--------------------------|--------------------------|
D|--7--------------------4--|-----4-----4--L--4--4--4--|
A|--3--------------------2--|-----2-----2--L--2--2--2--|
E|--------------x--x--x-----|--------------------------|


    E  E  E  E  E  E  E   E     E  E  E  E  E  E  E  E   
e|---------------------------|-----------------0--0--0--|
B|---------------------------|-----------0--L--0--0--0--|
G|---------------------------|-----7-----7--L--7--7--7--|
D|--7--------------------/9--|-----9-----9--L--9--9--9--|
A|--3--------------------/7--|-----7-----7--L--7--7--7--|
E|--------------x--x--x------|--------------------------|


    E  E  E  E  E  E  E  E     E  E  E  E  E  E  E  E     Q    E  Q    E  Q     
e|--------------------------|--------------------------|-----------------------|
B|--------------------------|--------------------------|-----------------------|
G|--------------------------|--------------------------|----------0----L-------|
D|--7--------------------4--|-----4-----4--L--4--4--4--|-------4--L----4-------|
A|--3--------------------2--|-----2-----2--L--2--2--2--|-----------------------|
E|--------------x--x--x-----|--------------------------|--3------------L--5----|


               PM PM PM PM                                  
    E  Q    E  S  S  S  S  Q       E  E  E  E  E  E  E  E   
e|------------------------------|--------------------------|
B|------------------------------|--------------------------|
G|-----0----L--------------0----|--------------------------|
D|--4--L----4--------------4----|--7--------------------4--|
A|------------------------------|--3--------------------2--|
E|----------L--5--5--5--5--5----|--------------x--x--x-----|


    E  E  E  E  E  E  E  E     E  E  E  E  E  E  E   E   
e|--------------------------|---------------------------|
B|--------------------------|---------------------------|
G|--------------------------|---------------------------|
D|-----4-----4--L--4--4--4--|--7--------------------/9--|
A|-----2-----2--L--2--2--2--|--3--------------------/7--|
E|--------------------------|--------------x--x--x------|


    E  E  E  E  E  E  E  E     E  E  E  E  E  E  E  E   
e|-----------------0--0--0--|--------------------------|
B|-----------0--L--0--0--0--|--------------------------|
G|-----7-----7--L--7--7--7--|--------------------------|
D|-----9-----9--L--9--9--9--|--7--------------------4--|
A|-----7-----7--L--7--7--7--|--3--------------------2--|
E|--------------------------|--------------x--x--x-----|


    E  E  E  E  E  E  E  E     Q    E  Q    E  Q     
e|--------------------------|-----------------------|
B|--------------------------|-----------------------|
G|--------------------------|----------0----L-------|
D|-----4-----4--L--4--4--4--|-------4--L----4-------|
A|-----2-----2--L--2--2--2--|-----------------------|
E|--------------------------|--3------------L--5----|


               PM PM PM PM                                               
    E  Q    E  S  S  S  S  Q       W                   W                 
e|------------------------------|-------------------|-------------------|
B|------------------------------|-------------------|-------------------|
G|-----0----L--------------0----|--0----------------|--L----------------|
D|--4--L----4--------------4----|--4----------------|--L----------------|
A|------------------------------|-------------------|-------------------|
E|----------L--5--5--5--5--5----|--3----------------|--L----------------|


    Q    E  Q    E  Q       Q    Q    Q    Q       Q    E  Q    E  Q     
e|-----------------------|----------------------|-----------------------|
B|-----------------------|----------------------|-----------------------|
G|----------0----L-------|------------0----L----|----------0----L-------|
D|-------4--L----4-------|-------4----L----4----|-------4--L----4-------|
A|-----------------------|----------------------|-----------------------|
E|--3------------L--5----|--L--------------L----|--0------------L--0----|


    H        E  E  Q       Q    E  Q    E  Q       Q    Q    Q    Q     
e|----------------------|-----------------------|-----------------0----|
B|----------------------|-----------------------|----------------------|
G|-----------0-----L----|----------0----L-------|------------0----L----|
D|--------------4--4----|-------4--L----4-------|-------4----L---------|
A|----------------------|-----------------------|----------------------|
E|--L--------------L----|--3------------L--5----|--L--------------L----|


    Q    E  Q    E  Q       H        E  E  Q       Q    E  Q    E  Q     
e|--L--------------------|----------------------|-----------------------|
B|-----------------------|----------------------|-----------------------|
G|----------0----L-------|--------------0--L----|----------0----L-------|
D|-------4--L----4-------|-----------4--L--4----|-------4--L----4-------|
A|-----------------------|----------------------|-----------------------|
E|--0------------L--0----|--L--------------L----|--3------------L--5----|


    Q    Q    Q    Q       Q    E  Q    E  Q       H        E  E  Q     
e|----------------------|-----------------------|----------------------|
B|----------------------|-----------------------|----------------------|
G|------------0----L----|----------0----L-------|-----------0-----L----|
D|-------4----L----4----|-------4--L----4-------|--------------4--4----|
A|----------------------|-----------------------|----------------------|
E|--L--------------L----|--0------------L--0----|--L--------------L----|


    Q    E  Q    E  Q       Q    Q    Q    Q       Q    E  Q    E  Q     
e|-----------------------|-----------------0----|--L--------------------|
B|-----------------------|----------------------|-----------------------|
G|----------0----L-------|------------0----L----|----------0----L-------|
D|-------4--L----4-------|-------4----L---------|-------4--L----4-------|
A|-----------------------|----------------------|-----------------------|
E|--3------------L--5----|--L--------------L----|--0------------L--0----|


    H        E  E  Q       Q    E  Q    E  Q       Q    Q    Q    Q     
e|----------------------|-----------------------|----------------------|
B|----------------------|-----------------------|----------------------|
G|--------------0--L----|----------0----L-------|------------0----L----|
D|-----------4--L--4----|-------4--L----4-------|-------4----L----4----|
A|----------------------|-----------------------|----------------------|
E|--L--------------L----|--3------------L--5----|--L--------------L----|


    Q    E  Q    E  Q       H        E  E  Q       Q    E  Q    E  Q     
e|-----------------------|----------------------|-----------------------|
B|-----------------------|----------------------|-----------------------|
G|----------0----L-------|-----------0-----L----|----------0----L-------|
D|-------4--L----4-------|--------------4--4----|-------4--L----4-------|
A|-----------------------|----------------------|-----------------------|
E|--0------------L--0----|--L--------------L----|--3------------L--5----|


    Q    Q    Q    Q       Q    E  Q    E  Q       H        E  E  Q     
e|-----------------0----|--L--------------------|----------------------|
B|----------------------|-----------------------|----------------------|
G|------------0----L----|----------0----L-------|--------------0--L----|
D|-------4----L---------|-------4--L----4-------|-----------4--L--4----|
A|----------------------|-----------------------|----------------------|
E|--L--------------L----|--0------------L--0----|--L--------------L----|


    PM PM PM PM PM PM PM PM    PM PM PM PM PM PM PM PM  
    E  E  E  E  E  E  E  E     E  E  E  E  E  E  E  E   
e|--------------------------|--------------------------|
B|--------------------------|--------------------------|
G|--------------0-----------|--------------0--0--------|
D|-----------4-----4--------|--------4--4--------4--4--|
A|--------------------------|--------------------------|
E|--3--3--3-----------5--5--|--5--5--------------------|


    PM PM PM PM PM PM PM PM    PM PM PM PM PM PM PM PM  
    E  E  E  E  E  E  E  E     E  E  E  E  E  E  E  E   
e|--------------------------|--------------------------|
B|--------------------------|--------------------------|
G|--------------0-----------|--------------0-----------|
D|-----------4-----4--------|-----------------4--4--4--|
A|--------------------------|--------------------------|
E|--0--0--0-----------0--0--|--0--0--0--0--------------|


    PM PM PM PM PM PM PM PM    PM PM PM PM PM PM PM PM  
    E  E  E  E  E  E  E  E     E  E  E  E  E  E  E  E   
e|--------------------------|--------------------0--0--|
B|--------------------------|--------------------------|
G|--------------0-----------|--------------0--0--------|
D|-----------4-----4--------|--------4--4--------------|
A|--------------------------|--------------------------|
E|--3--3--3-----------5--5--|--5--5--------------------|


    PM PM PM PM PM PM PM PM                                                
    E  E  E  E  E  E  E  E     W                   Q    S S Q    E.  S E   
e|--------------------------|-------------------|-------------------------|
B|--------------------------|-------------------|-------------------------|
G|--------------0-----------|-------------------|-------------------------|
D|-----------4-----4--------|-------------------|--4--------4----4-----4--|
A|--------------------------|-------------------|-------------------------|
E|--0--0--0-----------0--L--|--L----------------|--3----x-x-3----3---x-5--|


    E  E.  S Q    E  E  E     Q    S S Q    E.  S E     E  E.  S Q    E  E  E   
e|-------------------------|-------------------------|-------------------------|
B|-------------------------|-------------------------|-------------------------|
G|-------------------------|-------------------------|-------------------------|
D|--L--4-----4----4--4--4--|--4--------4----4-----7--|--L--7-----5----5--5--5--|
A|-------------------------|--7--------7----7-----7--|--L--7-----7----7--7--7--|
E|--L--5---x-5----5--5--5--|--0----x-x-0----0---x-0--|--L--0---x-0----0--0--0--|


    Q    S S Q    E.  S E     E  E.  S Q    E  E  E     Q    S S Q    E.  S E   
e|-------------------------|-------------------------|-------------------------|
B|-------------------------|-------------------------|-------------------------|
G|-------------------------|-------------------------|-------------------------|
D|--4--------4----4-----4--|--L--4-----4----4--4--4--|--4--------4----4-----7--|
A|-------------------------|-------------------------|--7--------7----7-----7--|
E|--3----x-x-3----3---x-5--|--L--5---x-5----5--5--5--|--0----x-x-0----0---x-0--|


    E  E.  S Q    E  E  E     E  E  E  Q    E  E  E     E  E  E  Q    E  E  E   
e|-------------------------|-------------------------|-------------------------|
B|-------------------------|-------------------------|-------------------------|
G|-------------------------|-----------0----------L--|--------L--0----------L--|
D|--L--7-----5----5--5--5--|-----4-----L----4--L--4--|--L--4-----L----4--L--4--|
A|--L--7-----7----7--7--7--|-------------------------|-------------------------|
E|--L--0---x-0----0--0--0--|--3--L--3-------L--3--L--|--5--L--5-------L--5--L--|


    E  E  E  Q    E  E  E     E  E  E  Q    E  E  E     E  E  E  Q    E  E  E   
e|-------------------------|-------------------------|-------------------------|
B|-------------------------|-------------------------|-------------------------|
G|--------L--0----------L--|--------L--0----------L--|--------L--0----------L--|
D|--L--4-----L----4--L--4--|--L--4-----L----4--L--4--|--L--4-----L----4--L--4--|
A|-------------------------|-------------------------|-------------------------|
E|--0--L--0-------L--0--L--|--0--L--0-------L--0--L--|--3--L--3-------L--3--L--|


                                                        PM PM PM PM PM PM PM PM  
    E  E  E  Q    E  E  E     E  E  E  Q    E  E  E     E  E  E  E  E  E  E  E   
e|----------------------0--|--L--------L-------------|--------------------------|
B|-------------------------|-------------------------|--------------------------|
G|--------L--0----------L--|--------L--0----------L--|--------------------------|
D|--L--4-----L----4--L-----|--L--4-----L----4--L--4--|--4--4--4--4--4--4--4--4--|
A|-------------------------|-------------------------|--7--7--7--7--7--7--7--7--|
E|--5--L--5-------L--5--L--|--0--L--0-------L--0--L--|--0--0--0--0--0--0--0--0--|


    Q    S S Q    E.  S E     E  E.  S Q    E  E  E     Q    S S Q    E.  S E   
e|-------------------------|-------------------------|-------------------------|
B|-------------------------|-------------------------|-------------------------|
G|-------------------------|-------------------------|-------------------------|
D|--4--------4----4-----4--|--L--4-----4----4--4--4--|--4--------4----4-----7--|
A|-------------------------|-------------------------|--7--------7----7-----7--|
E|--3----x-x-3----3---x-5--|--L--5---x-5----5--5--5--|--0----x-x-0----0---x-0--|


    E  E.  S Q    E  E  E     Q    S S Q    E.  S E     E  E.  S Q    E  E  E   
e|-------------------------|-------------------------|-------------------------|
B|-------------------------|-------------------------|-------------------------|
G|-------------------------|-------------------------|-------------------------|
D|--L--7-----5----5--5--5--|--4--------4----4-----4--|--L--4-----4----4--4--4--|
A|--L--7-----7----7--7--7--|-------------------------|-------------------------|
E|--L--0---x-0----0--0--0--|--3----x-x-3----3---x-5--|--L--5---x-5----5--5--5--|


                                                                   ^    v  ^   
    Q    S S Q    E.  S E     E  E  E  E  E  E  E  E     Q    Q    Q    E  E   
e|-------------------------|--------------------------|------------0----0--0--|
B|-------------------------|--------------------------|------------0----0--0--|
G|-------------------------|--------------------------|------------4----4--4--|
D|--4--------4----4-----7--|--L--7--7--7--5-----------|--4----4----4----4--4--|
A|--7--------7----7-----7--|--L--7--7--7--7-----------|-----------------------|
E|--0----x-x-0----0---x-0--|--L--0--0--0--0-----------|--3----3----3----3--3--|


              ^    v  ^               ^    v  ^                              
    Q    Q    Q    E  E     Q    Q    Q    E  E     E  E  E  E  E  E  E  E   
e|------------0----0--0--|-----------------------|--------------------------|
B|------------0----0--0--|-----------------------|--------------------------|
G|------------4----4--4--|------------0----0--0--|--0--0--0--0--0--0--0--0--|
D|--4----4----4----4--4--|--4----4----4----4--4--|--7--7--7--7--5--5--5--5--|
A|-----------------------|--7----7----7----7--7--|--7--7--7--7--7--7--7--7--|
E|--5----5----5----5--5--|--0----0----0----0--0--|--0--0--0--0--0--0--0--0--|


              ^    v  ^               ^    v  ^               ^    v  ^   
    Q    Q    Q    E  E     Q    Q    Q    E  E     Q    Q    Q    E  E   
e|------------0----0--0--|------------0----0--0--|-----------------------|
B|------------0----0--0--|------------0----0--0--|-----------------------|
G|------------4----4--4--|------------4----4--4--|------------0----0--0--|
D|--4----4----4----4--4--|--4----4----4----4--4--|--4----4----4----4--4--|
A|-----------------------|-----------------------|--7----7----7----7--7--|
E|--3----3----3----3--3--|--5----5----5----5--5--|--0----0----0----0--0--|


                               PM PM PM PM PM PM PM PM PM PM PM PM PM PM PM PM  
    E  E  E  E  E  E  E  E     S  S  S  S  S  S  S  S  S  S  S  S  S  S  S  S   
e|--------------------------|--------------------------------------------------|
B|--------------------------|--------------------------------------------------|
G|--0--0--0--0--0--0--0--0--|--------------------------------------------------|
D|--7--7--7--7--5--5--5--5--|--------------------------4--4--4--4--------------|
A|--7--7--7--7--7--7--7--7--|--------------------------------------------------|
E|--0--0--0--0--0--0--0--0--|--3--3--3--3--3--3--3--3--------------3--3--3--3--|


    PM PM PM PM PM PM PM PM PM PM PM PM PM PM PM PM  
    S  S  S  S  S  S  S  S  S  S  S  S  S  S  S  S   
e|--------------------------------------------------|
B|--------------------------------------------------|
G|--------------------------------------------------|
D|--------------------------4--4--4--4--------------|
A|--------------------------------------------------|
E|--5--5--5--5--5--5--5--5--------------5--5--5--5--|


    PM PM PM PM PM PM PM PM PM PM PM PM PM PM PM PM  
    S  S  S  S  S  S  S  S  S  S  S  S  S  S  S  S   
e|--------------------------------------------------|
B|--------------------------------------------------|
G|--------------------------------------------------|
D|--------------------------4--4--4--4--------------|
A|--------------------------------------------------|
E|--0--0--0--0--0--0--0--0--------------0--0--0--0--|


    PM PM PM PM PM PM PM PM PM PM PM PM PM PM PM PM  
    S  S  S  S  S  S  S  S  S  S  S  S  S  S  S  S   
e|--------------------------------------------------|
B|--------------------------------------------------|
G|--------------------------------------------------|
D|--4--4--4--4--5--5--5--5--4--4--4--4--4--4--4--4--|
A|--------------------------------------------------|
E|--------------------------------------------------|


    PM PM PM PM PM PM PM PM PM PM PM PM PM PM PM PM  
    S  S  S  S  S  S  S  S  S  S  S  S  S  S  S  S   
e|--------------------------------------------------|
B|--------------------------------------------------|
G|--------------------------------------------------|
D|--------------------------4--4--4--4--------------|
A|--------------------------------------------------|
E|--3--3--3--3--3--3--3--3--------------3--3--3--3--|


    PM PM PM PM PM PM PM PM PM PM PM PM PM PM PM PM  
    S  S  S  S  S  S  S  S  S  S  S  S  S  S  S  S   
e|--------------------------------------------------|
B|--------------------------------------------------|
G|--------------------------------------------------|
D|--------------------------4--4--4--4--9--9--9--9--|
A|--------------------------------------------------|
E|--5--5--5--5--5--5--5--5--------------------------|


    PM PM PM PM PM PM PM PM PM PM PM PM PM PM PM PM  
    S  S  S  S  S  S  S  S  S  S  S  S  S  S  S  S   
e|--------------------------------------------------|
B|--------------------------------------------------|
G|--------------------------------------------------|
D|--------------------------4--4--4--4--------------|
A|--------------------------------------------------|
E|--0--0--0--0--0--0--0--0--------------0--0--0--0--|


    E   E   E   E   E   E   E   E      W                   Q                     
e|----------------------------------|-------------------|-------|-------|-------|-------||
B|----------------------------------|-------------------|-------|-------|-------|-------||
G|----------------------------------|-------------------|-------|-------|-------|-------||
D|--4s--5s--4s--5s--4s--5s--4s--5s--|--4----------------|--L----|-------|-------|-------||
A|----------------------------------|-------------------|-------|-------|-------|-------||
E|----------------------------------|-------------------|-------|-------|-------|-------||





************************************
Duration Legend
---------------
W - whole
H - half
Q - quarter
E - 8th
S - 16th
T - 32nd
X - 64th
. - note dotted
|-n-|  - n-tuplets

| /   Slide up
| PM  Palm mute
| x   Dead note 

************************************

            
            
Suggest correction
Creating personal tab
Creating personal tab
You can edit any tab online and save it as your Personal.

You can edit, replace or remove any tab part or add personal notes – all changes will be seen only by you.

Personal tabs can be accessed anytime from any device, even offline.
Learn more »
Give kudos to tab author, rate the tab!
1 2 3 4 5
comments
print report bad tab
guest
You may want to rate the tab now too:
select rating
Wanna post a correction for this tab? Suggest correction