Oops, an error
Loading. Please wait.

Bricks tab

1,619 views 6 this week
1 commentread comment
1 2 3 4 5
3 more votes to show rating
add to favorites
×
Save as Personal and add changes to this tab that will be seen only by you. Learn more ›
×
You can save this tab as Personal to edit and correct it or add notes. All changes will be seen only by you. Learn more »
launch autoscroll
font size
0
reset
how to read this tab
guitar tuner
edit
Autoscroll
slow
fast
+/-
esc
set tempo
stop
Author
Wanted to play this song and copied how this girl played it on youtube: 
http://youtu.be/F1a3huCbQwE.

It's not quite the same as on the album but it's nice. Hoping someone else will tab more 
songs by this band (Somethings Wrong?).

Anyways it's just this loop over and over again:

--------------------------------------------|
--------------------------------------------|
0-----------4----------5----------5---------|
--------------------------------------------|
---2--0--------2--2-------3--3-------3--3---|
---3--3--------2--2-------3--3-------3--3---|



My love's hair
Is the color of brick,
It's the color of brick.
And she holds me,
Right down on the ground
So I don't fly too far.
Away, away, away,
Away, away, away,
Away, away away.
Hey.

Well we stand tall,
Together like towers.
Well together like towers,
We fall, we fall, we fall,
We fall, we fall, we fall,
We fall, we fall, we fall.

Well my love's hair
Is the color of brick,
Is the color of brick.
And she holds me,
Right down on the ground
So I don't fly too far.
Away, away, away
Away, away, away
Away, away away.

Well my loves hair,
My love's hair.

            
            
Suggest correction
Creating personal tab
Creating personal tab
You can edit any tab online and save it as your Personal.

You can edit, replace or remove any tab part or add personal notes – all changes will be seen only by you.

Personal tabs can be accessed anytime from any device, even offline.
Learn more »
Give kudos to tab author, rate the tab!
1 2 3 4 5
comments
print report bad tab
1 comment total.
0 reply
Eapzy 30 Jan 23, 2013 07:58 AM

I ****ed up. The fingers are reversed on the first part. So it's actually:
--------------------------------------------|
--------------------------------------------|
0-----------4----------5----------5---------|
--------------------------------------------|
---3--0--------2--2-------3--3-------3--3---|
---2--2--------2--2-------3--3-------3--3---|

guest
You may want to rate the tab now too:
select rating
Wanna post a correction for this tab? Suggest correction