Oops, an error
Loading. Please wait.

Hungry Ghost chords

538 views 12 this week
no commentswrite comment
1 2 3 4 5
3 more votes to show rating
add to favorites
×
Save as Personal and add changes to this tab that will be seen only by you. Learn more ›
×
You can save this tab as Personal to edit and correct it or add notes. All changes will be seen only by you. Learn more »
launch autoscroll
font size
0
reset
transpose
0
reset
display chords
guitar tuner
edit
Autoscroll
slow
fast
+/-
esc
set tempo
stop
Strumming
There is no strumming pattern for this song yet. and get +5 IQ
[Intro]

(this riff is played throughout the verses and outtro, / = slide) 
  G
e|---------------------------------------------------------------------|
G|---------------------------------------------------------------------|
B|---------------------------------------------------------------------|
D|---------------------------------------------------------------------|
A|---------------------------------------------------------------------|
E|-3-3-3-3/5--5-5-5/7--7-7-7--7-7-7--3-3-3-3/5--5-5-5/7--7-7-7-7-7-7-7-|
  G
e|---------------------------------------------------------------------|
G|---------------------------------------------------------------------|
B|---------------------------------------------------------------------|
D|---------------------------------------------------------------------|
A|---------------------------------------------------------------------|
E|-3-3-3-3/5--5-5-5/3--3-3-3--3-3-3--3-3-3-3/5--5-5-5/3--3-3-3-3-3-3-3-|

For the pre-chorus, transition from the verse riff (G) to the the chord (Em) strumming like this: 

e|---------0--|
G|---------0--|
B|---------0--|
D|---------2--|
A|---------2--|
E|-3-3-2-2-0--|


[Verse 1]
G
I've been a lonely girl, I've been a lonely girl 
G
But I'm ready for the world, Yeah I'm ready for the world
G
I been a heart for hire, I've been a heart for hire
G
And my love's on the funeral pyre, My love's on the funeral pyre

[Pre-Chorus]

Em                                   G
When will you, when will you help me out
Em                              D                        
You can't even pick me out of the crowd, oh oh oh, oh oh oh

[Verse 2]
G
I've been nobody's child, I've been nobody's child
G
So my blood started running wild, oh my blood started running wild
G
I've been a hungry ghost, I've been a hungry ghost
G
And I've traveled from coast to coast, oh I've traveled from coast

[Pre-Chorus]

Em                                   G
When will you, when will you help me out
Em                                 G   D
You can't even pick me out of the crowd 

[Chorus]

       C                   G   
Oh and I, I don't need you anymore
        C                         G  D
So then why am I standing at your door? oh oh oh, oh oh oh

[Outtro] 
G
I've been a lonely girl, I've been a lonely girl 
G
But I'm ready for the world, oh I'm ready for the world
G
Well I'm ready for the world, oh I'm ready for the world
G
Oh I'm ready for the world, Oh I'm ready for the world
G
Well I'm ready for the world

Suggest correction
Creating personal tab
Creating personal tab
You can edit any tab online and save it as your Personal.

You can edit, replace or remove any tab part or add personal notes – all changes will be seen only by you.

Personal tabs can be accessed anytime from any device, even offline.
Learn more »
Give kudos to tab author, rate the tab!
1 2 3 4 5
comments
print report bad tab
guest
You may want to rate the tab now too:
select rating
Wanna post a correction for this tab? Suggest correction