Oops, an error
Loading. Please wait.

I Will Stay chords

version 1
version 1

Whole song

Interactive

79,943 views 144 this week
4 commentsread comments
1 2 3 4 5
x 14
add to favorites
×
Save as Personal and add changes to this tab that will be seen only by you. Learn more ›
×
You can save this tab as Personal to edit and correct it or add notes. All changes will be seen only by you. Learn more »
launch autoscroll
font size
0
reset
transpose
0
reset
display chords
guitar tuner
edit
Autoscroll
slow
fast
+/-
esc
set tempo
stop
Author
Strumming
There is no strumming pattern for this song yet. and get +5 IQ
[Intro riff] x4

e|---------0--0--0--0--0--0--0--0-------------|
B|---------1--0--1--0--1--1--0--1-------------|
G|---------2--2--2--2--2--2--2--2-------------|
D|---------2--2--2--2--2--2--2--2-------------|
A|---0----------------------------------------|
E|-0------------------------------------------|

(Before you start the verse play Am couple times)

Chords

    EADGBE

F   X33211
G   355433
Am  002210/577555
E   779997


[Solo]

e|---------3-----------------------|-3------------5-------------------|
B|-3--5-6----6-5-6p5--3------3-5-6-|---6-5-3---3----------------------|
G|----------------------2--2-------|---------5------------------------|
D|---------------------------------|----------------------------------|
A|---------------------------------|----------------------------------|
E|---------------------------------|----------------------------------|


       F             G             Am
I will stay by your side now and forever,
        F          G               Am
I will always only be in love with you.
      F             G             Am
Is it true when you say that you love me
          F          G   Am     
and is it true that I'm the one?


        F          Am      
In the day we walk together
        F              E
in the night I think of you


      F             G             Am
Is it true when you say that you love me
          F          G   Am     
and is it true that I'm the one?


[Solo]

e|---------3-----------------------|-3------------5-------------------|
B|-3--5-6----6-5-6p5--3------3-5-6-|---6-5-3---3----------------------|
G|----------------------2--2-------|---------5------------------------|
D|---------------------------------|----------------------------------|
A|---------------------------------|----------------------------------|
E|---------------------------------|----------------------------------|


       F                         Am
I will phone your mother and ask her
   F           E
if I can marry you.


       F             G             Am
I will stay by your side now and forever,
        F          G               Am
I will always only be in love with you.
      F             G             Am
Is it true when you say that you love me
          F          G   Am     
and is it true that I'm the one?

Outro is almost the same as the intro 
Listen to the CD.



************************************

| p  Pull-off

************************************
Suggest correction
Creating personal tab
Creating personal tab
You can edit any tab online and save it as your Personal.

You can edit, replace or remove any tab part or add personal notes – all changes will be seen only by you.

Personal tabs can be accessed anytime from any device, even offline.
Learn more »
comments
print report bad tab
4 comments total. Showing first comments.
0 reply
Jonicola 893 Jan 10, 2008 07:18 PM

I believe E is the missing chord in the bridge, please update:
F Am
In the day we walk
together
F E
in the night I think of you

Additionally, the solo comes before the 2nd bridge
(I will phone...)

Best regards.
Juha

+2 reply
anttii 212 Oct 27, 2008 06:19 AM

The F chord is easier to play like / F on helpompi soittaa nain:
|-1--|
|-1--|
|-2--|
|-3--|
|----|
|----|
Sounds almost same to me / Kuulostaa aika lailla samalta ku barre-sointu

0 reply
jaakkosakari.ko 10 Sep 15, 2013 09:45 AM

Very simple words ans statements in a classic forever,,,thank u bottom of my heart,,,sincerely your Jake...

guest
You may want to rate the tab now too:
select rating
Wanna post a correction for this tab? Suggest correction