Oops, an error
Loading. Please wait.

Somebody Help Me tab

1,015 views 1 this week
no commentswrite comment
1 2 3 4 5
2 more votes to show rating
add to favorites
×
Save as Personal and add changes to this tab that will be seen only by you. Learn more ›
×
You can save this tab as Personal to edit and correct it or add notes. All changes will be seen only by you. Learn more »
launch autoscroll
font size
0
reset
how to read this tab
guitar tuner
edit
Autoscroll
slow
fast
+/-
esc
set tempo
stop
Author
-------------------------------------------------------------------------------
Hurriganes-Somebody Help Me
Album: 10/80

Intro
e|---------------------------------------------------------------------------|
B|---4--5--4--5---4--2---4--2------------------------------------------------|
G|---4--4--4--4---4--2---4--2------------------------------------------------|2x
D|-------------------2------2------------------------------------------------|
A|---------------------------------------------------------------------------|
E|---------------------------------------------------------------------------|

Verse
e|---------------------------------------------------------------------------|
B|---------------------------------------------------------------------------|
G|---------------------------------------------------------------------------|
D|---------------------------------------------------------------------------|
A|----------------------------------0-0-0-0-0-0-0-0-0-0-0-0-0-0-0-0----------|
E|--0-0-0-0-0-0-0-0-0-0-0-0-0-0-0-0------------------------------------------|

e|---------------------------------------------------------------------------|
B|---------------------------------------------------------------------------|
G|---------------------------------------------------------------------------|
D|---------------------------------------------------------------------------|
A|----------------------------------0-0-0-0-0-0-0-0-0-0-0-0-0-0-0-0----------|
E|--0-0-0-0-0-0-0-0-0-0-0-0-0-0-0-0------------------------------------------|


e|---------------------------------------------------------------------------|
B|---------------------------------------------------------------------------|
G|----------------4----------------2-----------------------------------------|
D|--2-------------4----------------2-----------------------------------------|
A|--2-------------2----------------0-----------------------------------------|
E|--0------------------------------------------------------------------------|
 |
e|---------------------------------------------------------------------------|
B|---------------------------------------------------------------------------|
G|---------------------------------------------------------------------------|
D|---------------------------------------------------------------------------|
A|------------------2-2-2-2-2-2-2-2-0-0-0-0-0-0-0-0-0-0-0-0-0-0-0-0----------|
E|--0-0-0-0-0-0-0-0----------------------------------------------------------|


e|---------------------------------------------------------------------------|
B|---------------------------------------------------------------------------|
G|----------------4----------------2-----------------------------------------|
D|--2-------------4----------------2-----------------------------------------|
A|--2-------------2----------------0-----------------------------------------|
E|--0------------------------------------------------------------------------|
 |
e|---------------------------------------------------------------------------|
B|---------------------------------------------------------------------------|
G|---------------------------------------------------------------------------|
D|---------------------------------------------------------------------------|
A|------------------2-2-2-2-2-2-2-2-0-0-0-0-0-0-0-0-0-0-0-0-0-0-0-0----------|
E|--0-0-0-0-0-0-0-0----------------------------------------------------------|


Chorus
e|---------------------------------------------------------------------------|
B|---------------------------------------------------------------------------|
G|---------------------------------------------------------------------------|
D|---------------------------------------------------------------------------|
A|----------------------------------0-0-0-0-0-0-0-0-0-0-0-0-0-0-0-0----------|
E|--0-0-0-0-0-0-0-0-0-0-0-0-0-0-0-0------------------------------------------|

e|---------------------------------------------------------------------------|
B|---------------------------------------------------------------------------|
G|---------------------------------------------------------------------------|
D|---------------------------------------------------------------------------|
A|----------------------------------0-0-0-0-0-0-0-0-0-0-0-0-0-0-0-0----------|
E|--0-0-0-0-0-0-0-0-0-0-0-0-0-0-0-0------------------------------------------|

Verse
e|---------------------------------------------------------------------------|
B|---------------------------------------------------------------------------|
G|---------------------------------------------------------------------------|
D|---------------------------------------------------------------------------|
A|----------------------------------0-0-0-0-0-0-0-0-0-0-0-0-0-0-0-0----------|
E|--0-0-0-0-0-0-0-0-0-0-0-0-0-0-0-0------------------------------------------|

e|---------------------------------------------------------------------------|
B|---------------------------------------------------------------------------|
G|---------------------------------------------------------------------------|
D|---------------------------------------------------------------------------|
A|----------------------------------0-0-0-0-0-0-0-0-0-0-0-0-0-0-0-0----------|
E|--0-0-0-0-0-0-0-0-0-0-0-0-0-0-0-0------------------------------------------|

Chorus
e|---------------------------------------------------------------------------|
B|---------------------------------------------------------------------------|
G|---------------------------------------------------------------------------|
D|---------------------------------------------------------------------------|
A|----------------------------------0-0-0-0-0-0-0-0-0-0-0-0-0-0-0-0----------|
E|--0-0-0-0-0-0-0-0-0-0-0-0-0-0-0-0------------------------------------------|

e|---------------------------------------------------------------------------|
B|---------------------------------------------------------------------------|
G|---------------------------------------------------------------------------|
D|---------------------------------------------------------------------------|
A|----------------------------------0-0-0-0-0-0-0-0-0-0-0-0-0-0-0-0----------|
E|--0-0-0-0-0-0-0-0-0-0-0-0-0-0-0-0------------------------------------------|

Solo 
      F#
e|---------------------------------------------------------------------------|
B|-------------------------------------------------------3b4-----------------|
G|-------------------4b6r4-2-----------------------2h3-------2---------------|
D|---------------------------4-2-4-4-2-2-2-2-2-2-4-----4-------4-2-----------|
A|--4-4---4-4-4---4----------------------------------------------------------|
E|--2-2-0-2-2-2-0-2----------------------------------------------------------|

e|---------------------------------------------------------------------------|
B|---------------------------------------------------------------------------|
G|---------------------------------------------------------------------------|
D|---------------------------------------------------------------------------|
A|---------------------------------------------------------------------------|
E|---------------------------------------------------------------------------|
                         A
e|---------------------------5----------5------------------------------------|
B|--------2--------------------5-8-8b10---8-5--------------------------------|
G|----2-3---4-2h3--------5h6------------------7b9-7-5-7-5~-------------------|
D|--4-------------4-2-------------------------------------7---5-7------------|
A|----------------------------------------------------------7----------------|
E|---------------------------------------------------------------------------|

     B
e|---------------------------------------------------------------------------|
B|-------10-12-12b14r12~-----------------------------------------------------|
G|---/11---------------------------------------------------------------------|
D|---------------------------------------------------------------------------|
A|---------------------------------------------------------------------------|
E|---------------------------------------------------------------------------|

Verse
e|---------------------------------------------------------------------------|
B|---------------------------------------------------------------------------|
G|---------------------------------------------------------------------------|
D|---------------------------------------------------------------------------|
A|----------------------------------0-0-0-0-0-0-0-0-0-0-0-0-0-0-0-0----------|
E|--0-0-0-0-0-0-0-0-0-0-0-0-0-0-0-0------------------------------------------|

e|---------------------------------------------------------------------------|
B|---------------------------------------------------------------------------|
G|---------------------------------------------------------------------------|
D|---------------------------------------------------------------------------|
A|----------------------------------0-0-0-0-0-0-0-0-0-0-0-0-0-0-0-0----------|
E|--0-0-0-0-0-0-0-0-0-0-0-0-0-0-0-0------------------------------------------|


e|---------------------------------------------------------------------------|
B|---------------------------------------------------------------------------|
G|----------------4----------------2-----------------------------------------|
D|--2-------------4----------------2-----------------------------------------|
A|--2-------------2----------------0-----------------------------------------|
E|--0------------------------------------------------------------------------|
 |
e|---------------------------------------------------------------------------|
B|---------------------------------------------------------------------------|
G|---------------------------------------------------------------------------|
D|---------------------------------------------------------------------------|
A|------------------2-2-2-2-2-2-2-2-0-0-0-0-0-0-0-0-0-0-0-0-0-0-0-0----------|
E|--0-0-0-0-0-0-0-0----------------------------------------------------------|


e|---------------------------------------------------------------------------|
B|---------------------------------------------------------------------------|
G|----------------4----------------2-----------------------------------------|
D|--2-------------4----------------2-----------------------------------------|
A|--2-------------2----------------0-----------------------------------------|
E|--0------------------------------------------------------------------------|
 |
e|---------------------------------------------------------------------------|
B|---------------------------------------------------------------------------|
G|---------------------------------------------------------------------------|
D|---------------------------------------------------------------------------|
A|------------------2-2-2-2-2-2-2-2-0-0-0-0-0-0-0-0-0-0-0-0-0-0-0-0----------|
E|--0-0-0-0-0-0-0-0----------------------------------------------------------|

Chorus
e|---------------------------------------------------------------------------|
B|---------------------------------------------------------------------------|
G|---------------------------------------------------------------------------|
D|---------------------------------------------------------------------------|
A|----------------------------------0-0-0-0-0-0-0-0-0-0-0-0-0-0-0-0----------|
E|--0-0-0-0-0-0-0-0-0-0-0-0-0-0-0-0------------------------------------------|

e|---------------------------------------------------------------------------|
B|---------------------------------------------------------------------------|
G|---------------------------------------------------------------------------|
D|---------------------------------------------------------------------------|
A|----------------------------------0-0-0-0-0-0-0-0-0-0-0-0-0-0-0-0----------|
E|--0-0-0-0-0-0-0-0-0-0-0-0-0-0-0-0------------------------------------------|

e|---------------------------------------------------------------------------|
B|---------------------------------------------------------------------------|
G|---------------------------------------------------------------------------|
D|---------------------------------------------------------------------------|
A|----------------------------------0-0-0-0-0-0-0-0-0-0-0-0-0-0-0-0----------|
E|--0-0-0-0-0-0-0-0-0-0-0-0-0-0-0-0------------------------------------------|

e|---------------------------------------------------------------------------|
B|---------------------------------------------------------------------------|
G|---------------------------------------------------------------------------|
D|---------------------------------------------------------------------------|
A|----------------------------------0-0-0-0-0-0-0-0-0-0-0-0-0-0-0-0----------|
E|--0-0-0-0-0-0-0-0-0-0-0-0-0-0-0-0------------------------------------------|

Instrumental Break
e|---------------------------------------------------------------------------|
B|-----------------5------------5-----------5--------------------------------|
G|------2-2-----/4-4----2----/4-4---2----/4-4---2----------------------------|
D|---2--2-2--2----------2--2--------2--2--------2----------------------------|
A|---2--0-0--2--------0-0--2------0-0--2------0-0----------------------------|
E|---0-------0-------------0-----------0-------------------------------------|

Out-Chorus (Repeat until fade)
e|---------------------------------------------------------------------------|
B|---------------------------------------------------------------------------|
G|---------------------------------------------------------------------------|
D|---------------------------------------------------------------------------|
A|----------------------------------0-0-0-0-0-0-0-0-0-0-0-0-0-0-0-0----------|
E|--0-0-0-0-0-0-0-0-0-0-0-0-0-0-0-0------------------------------------------|

e|---------------------------------------------------------------------------|
B|---------------------------------------------------------------------------|
G|---------------------------------------------------------------------------|
D|---------------------------------------------------------------------------|
A|----------------------------------0-0-0-0-0-0-0-0-0-0-0-0-0-0-0-0----------|
E|--0-0-0-0-0-0-0-0-0-0-0-0-0-0-0-0------------------------------------------|


            
            
Suggest correction
Creating personal tab
Creating personal tab
You can edit any tab online and save it as your Personal.

You can edit, replace or remove any tab part or add personal notes – all changes will be seen only by you.

Personal tabs can be accessed anytime from any device, even offline.
Learn more »
Give kudos to tab author, rate the tab!
1 2 3 4 5
comments
print report bad tab
guest
You may want to rate the tab now too:
select rating
Wanna post a correction for this tab? Suggest correction