Oops, an error
Loading. Please wait.

Ya Ya tab

version 1
version 1

Whole song

Interactive

421 views 3 this week
no commentswrite comment
1 2 3 4 5
2 more votes to show rating
add to favorites
×
Save as Personal and add changes to this tab that will be seen only by you. Learn more ›
×
You can save this tab as Personal to edit and correct it or add notes. All changes will be seen only by you. Learn more »
launch autoscroll
font size
0
reset
how to read this tab
guitar tuner
edit
Autoscroll
slow
fast
+/-
esc
set tempo
stop
Author
------------------------------------------------------------------------------
Hurriganes- Ya Ya
------------------------------------------------------------------------------

Rhythm Guitar:
      W                   W                   W
E||--------------------|-------------------|-------------------|
B||--------------------|-------------------|-------------------|
G||*--2----------------|--L----------------|--L----------------|
D||*--2----------------|--L----------------|--L----------------|
A||---0----------------|--L----------------|--L----------------|
E||--------------------|-------------------|-------------------|


  E  E  E  E  H             W                   W
------------------------||-------------------|-------------------|
--3--3--L---------------||-------------------|-------------------|
--2--2--L--2--L--------*||--L----------------|-------------------|
--0--0--L--2--L--------*||--L----------------|-------------------|
-----------0--L---------||--L----------------|-------------------|
------------------------||-------------------|-------------------|


  E  E  E  E  E  E  E  E     E  E  E  Q    E  E  E     E  E  E  E  E  E  E  E
--------------------------|-------------------------|--------------------------|
--------------------------|-------------------------|--------------------------|
--------------------------|-----------2-------------|--------------------------|
--2--2--4--2--2--2--4--2--|--2--2--4--2----2--4--2--|--2--2--4--2--2--2--4--2--|
--0--0--0--0--0--0--0--0--|--0--0--0--0----0--0--0--|--0--0--0--0--0--0--0--0--|
--------------------------|-------------------------|--------------------------|


  E  E  E  E  E  E  E  E     E  E  E  Q    E  E  E     E  E  E  Q    E  E  E
--------------------------|-------------------------|-------------------------|
--------------------------|-------------------------|-------------------------|
--2--2--4--2--2--2--4--2--|-----------2-------------|-----------2-------------|
--0--0--0--0--0--0--0--0--|--2--2--4--2----2--4--2--|--2--2--4--2----2--4--2--|
--------------------------|--0--0--0--0----0--0--0--|--0--0--0--0----0--0--0--|
--------------------------|-------------------------|-------------------------|


  E  E  E  E  E  E  E  E     E  E  E  E  E  E  E  E     E  E  E  Q    E  E  E
--------------------------|--------------------------|-------------------------|
--------------------------|--------------------------|-------------------------|
--------------------------|--2--2--4--2--2--2--4--2--|-----------2-------------|
--------------------------|--0--0--0--0--0--0--0--0--|--2--2--4--2----2--4--2--|
--2--2--4--2--2--2--4--2--|--------------------------|--0--0--0--0----0--0--0--|
--0--0--0--0--0--0--0--0--|--------------------------|-------------------------|


  E  E  E  E  E  E  E  E     E  E  E  E  E  E  E  E
--------------------------|--------------------------|
--------------------------|--------------------------|
--------------------------|--------------------------|
--------------------------|--2--2--4--2--2--2--4--2--|
-----2--2--2--2--2--2--2--|--0--0--0--0--0--0--0--0--|
-----0--0--0--0--0--0--0--|--------------------------|


  E  E  E  E  E  E  E  E     E  E  E  Q    E  E  E     E  E  E  Q    E  E  E
--------------------------|-------------------------|-------------------------|
--------------------------|-------------------------|-------------------------|
--2--2--4--2--2--2--4--2--|-----------2-------------|-----------2-------------|
--0--0--0--0--0--0--0--0--|--2--2--4--2----2--4--2--|--2--2--4--2----2--4--2--|
--------------------------|--0--0--0--0----0--0--0--|--0--0--0--0----0--0--0--|
--------------------------|-------------------------|-------------------------|


  E  E  E  E  E  E  E  E     E  E  E  E  E  E  E  E     E  E  E  Q    E  E  E
--------------------------|--------------------------|-------------------------|
--------------------------|--------------------------|-------------------------|
--------------------------|--2--2--4--2--2--2--4--2--|-----------2-------------|
--2--2--4--2--2--2--4--2--|--0--0--0--0--0--0--0--0--|--2--2--4--2----2--4--2--|
--0--0--0--0--0--0--0--0--|--------------------------|--0--0--0--0----0--0--0--|
--------------------------|--------------------------|-------------------------|


  E  E  E  Q    E  E  E     E  E  E  E  E  E  E  E     E  E  E  E  E  E  E  E
-------------------------|--------------------------|--------------------------|
-------------------------|--------------------------|--------------------------|
-----------2-------------|--------------------------|--2--2--4--2--2--2--4--2--|
--2--2--4--2----2--4--2--|--------------------------|--0--0--0--0--0--0--0--0--|
--0--0--0--0----0--0--0--|--2--2--4--2--2--2--4--2--|--------------------------|
-------------------------|--0--0--0--0--0--0--0--0--|--------------------------|


  E  E  E  Q    E  E  E     E  E  E  E  E  E  E  E     E  E  E  E  E  E  E  E
-------------------------|--------------------------|--------------------------|
-------------------------|--------------------------|--------------------------|
-----------2-------------|--------------------------|--------------------------|
--2--2--4--2----2--4--2--|--------------------------|--2--2--4--2--2--2--4--2--|
--0--0--0--0----0--0--0--|-----2--2--2--2--2--2--2--|--0--0--0--0--0--0--0--0--|
-------------------------|-----0--0--0--0--0--0--0--|--------------------------|


  E  E  E  E  E  E  E  E     E  E  E  Q    E  E  E     E  E  E  Q    E  E  E
--------------------------|-------------------------|-------------------------|
--------------------------|-------------------------|-------------------------|
--2--2--4--2--2--2--4--2--|-----------2-------------|-----------2-------------|
--0--0--0--0--0--0--0--0--|--2--2--4--2----2--4--2--|--2--2--4--2----2--4--2--|
--------------------------|--0--0--0--0----0--0--0--|--0--0--0--0----0--0--0--|
--------------------------|-------------------------|-------------------------|


  E  E  E  E  E  E  E  E     E  E  E  E  E  E  E  E     E  E  E  Q    E  E  E
--------------------------|--------------------------|-------------------------|
--------------------------|--------------------------|-------------------------|
--------------------------|--2--2--4--2--2--2--4--2--|-----------2-------------|
--2--2--4--2--2--2--4--2--|--0--0--0--0--0--0--0--0--|--2--2--4--2----2--4--2--|
--0--0--0--0--0--0--0--0--|--------------------------|--0--0--0--0----0--0--0--|
--------------------------|--------------------------|-------------------------|


  E  E  E  Q    E  E  E     E  E  E  E  E  E  E  E     E  E  E  E  E  E  E  E
-------------------------|--------------------------|--------------------------|
-------------------------|--------------------------|--------------------------|
-----------2-------------|--------------------------|--2--2--4--2--2--2--4--2--|
--2--2--4--2----2--4--2--|--------------------------|--0--0--0--0--0--0--0--0--|
--0--0--0--0----0--0--0--|--2--2--4--2--2--2--4--2--|--------------------------|
-------------------------|--0--0--0--0--0--0--0--0--|--------------------------|


  E  E  E  Q    E  E  E     E  E  E  E  E  E  E  E     E  E  E  E  E  E  E  E
-------------------------|--------------------------|--------------------------|
-------------------------|--------------------------|--------------------------|
-----------2-------------|--------------------------|--------------------------|
--2--2--4--2----2--4--2--|--------------------------|--2--2--4--2--2--2--4--2--|
--0--0--0--0----0--0--0--|-----2--2--2--2--2--2--2--|--0--0--0--0--0--0--0--0--|
-------------------------|-----0--0--0--0--0--0--0--|--------------------------|


  E  E  E  E  E  E  E  E     E  E  E  Q    E  E  E     E  E  E  Q    E  E  E
--------------------------|-------------------------|-------------------------|
--------------------------|-------------------------|-------------------------|
--2--2--4--2--2--2--4--2--|-----------2-------------|-----------2-------------|
--0--0--0--0--0--0--0--0--|--2--2--4--2----2--4--2--|--2--2--4--2----2--4--2--|
--------------------------|--0--0--0--0----0--0--0--|--0--0--0--0----0--0--0--|
--------------------------|-------------------------|-------------------------|


  E  E  E  E  E  E  E  E     E  E  E  E  E  E  E  E     E  E  E  Q    E  E  E
--------------------------|--------------------------|-------------------------|
--------------------------|--------------------------|-------------------------|
--------------------------|--2--2--4--2--2--2--4--2--|-----------2-------------|
--2--2--4--2--2--2--4--2--|--0--0--0--0--0--0--0--0--|--2--2--4--2----2--4--2--|
--0--0--0--0--0--0--0--0--|--------------------------|--0--0--0--0----0--0--0--|
--------------------------|--------------------------|-------------------------|


  E  E  E  Q    E  E  E     E  E  E  E  E  E  E  E     E  E  E  E  E  E  E  E
-------------------------|--------------------------|--------------------------|
-------------------------|--------------------------|--------------------------|
-----------2-------------|--------------------------|--2--2--4--2--2--2--4--2--|
--2--2--4--2----2--4--2--|--------------------------|--0--0--0--0--0--0--0--0--|
--0--0--0--0----0--0--0--|--2--2--4--2--2--2--4--2--|--------------------------|
-------------------------|--0--0--0--0--0--0--0--0--|--------------------------|


  E  E  E  Q    E  E  E     E  E  E  E  E  E  E  E     E  E  E  E  E  E  E  E
-------------------------|--------------------------|--------------------------|
-------------------------|--------------------------|--------------------------|
-----------2-------------|--------------------------|--------------------------|
--2--2--4--2----2--4--2--|--------------------------|--------------------------|
--0--0--0--0----0--0--0--|-----2--2--2--2--2--2--2--|--2--2--4--2--2--2--4--2--|
-------------------------|-----0--0--0--0--0--0--0--|--0--0--0--0--0--0--0--0--|


  E  E  E  E  E  E  E  E     E  E  E  Q    E  E  E     E  E  E  Q    E  E  E
--------------------------|-------------------------|-------------------------|
--------------------------|-------------------------|-------------------------|
--2--2--4--2--2--2--4--2--|-----------2-------------|-----------2-------------|
--0--0--0--0--0--0--0--0--|--2--2--4--2----2--4--2--|--2--2--4--2----2--4--2--|
--------------------------|--0--0--0--0----0--0--0--|--0--0--0--0----0--0--0--|
--------------------------|-------------------------|-------------------------|


  E  E  E  E  E  E  E  E     E  E  E  E  E  E  E  E     E  E  E  Q    E  E  E
--------------------------|--------------------------|-------------------------|
--------------------------|--------------------------|-------------------------|
--------------------------|--2--2--4--2--2--2--4--2--|-----------2-------------|
--------------------------|--0--0--0--0--0--0--0--0--|--2--2--4--2----2--4--2--|
--2--2--4--2--2--2--4--2--|--------------------------|--0--0--0--0----0--0--0--|
--0--0--0--0--0--0--0--0--|--------------------------|-------------------------|


  E  E  E  Q    E  E  E     E  E  E  E  E  E  E  E     E  E  E  E  E  E  E  E
-------------------------|--------------------------|--------------------------|
-------------------------|--------------------------|--------------------------|
-----------2-------------|--------------------------|--2--2--4--2--2--2--4--2--|
--2--2--4--2----2--4--2--|--------------------------|--0--0--0--0--0--0--0--0--|
--0--0--0--0----0--0--0--|--2--2--4--2--2--2--4--2--|--------------------------|
-------------------------|--0--0--0--0--0--0--0--0--|--------------------------|


  E  E  E  Q    E  E  E     E  E  H.
-------------------------|---------------------||
-------------------------|---------------------||
-----------2-------------|---------------------||
--2--2--4--2----2--4--2--|--2------------------||
--0--0--0--0----0--0--0--|--0------------------||
-------------------------|---------------------||


Solo

   E  E  E  E  E  E  E  E
|--------------------------|
|--------------------------|
|--------------------------|
|--------------2--2--4--2--|
|--0--0--3--4--------------|
|--------------------------|


              W
  E    S S E  Q.     E  E     E  E  E  E  E  E  E  S  S
---------------------------|----------------------------|
---------------------------|----------------------------|
--4br--L-2----2------------|--------------------2-------|
-----------4---------4--2--|--4-----------2--4-----4p-2-|
---------------------------|-----0--3--4----------------|
---------------------------|----------------------------|


           W
  E  E  E  Q    E  E  E     E  E  E  E  E  E  E  E
-------------------------|--------------------------|
-------------------------|--------------------------|
--2--2-----2----2--------|--------------------------|
--------4----------4--2--|--------------2--2--4--2--|
-------------------------|--0--0--3--4--------------|
-------------------------|--------------------------|


                 W             tr    tr
  E    S S E  E  Q    E  E     E     H.              E
----------------------------|---------------------------|
----------------------------|---------------------------|
--4br--L-2----2--2-------0--|--0(2)--0(2)------------4--|
-----------4----------4-----|---------------------------|
----------------------------|---------------------------|
----------------------------|---------------------------|


                                               W
  E   Q    E    E  E  E  E     S  S E  E  Q    E  E  E
------5---------------------|---------------------------|
----------------------------|-------5--7--5----5--7--5--|
--Lb-------4br--L--2-----2--|--4S-6---------------------|
----------------------4-----|---------------------------|
----------------------------|---------------------------|
----------------------------|---------------------------|


                  W                      W
         |-3-|
  S S E  S S S E  Q    E  E     E  E  E  Q.     E  E
--8-7-5----------------------|------------------------|
---------8-7-5----5----------|------------------------|
---------------7-------7--5--|-----7-----5---------5--|
-----------------------------|--7-----7---------7-----|
-----------------------------|------------------------|
-----------------------------|------------------------|


  E  E  E  E  E  E  E  E
--------------------------|
--------------------------|
--------------------------|
--------------------------|
-----7--7--7--7--7--7--7--|
--------------------------|
Duration Legend
---------------
W - whole
H - half
Q - quarter
E - 8th
S - 16th
T - 32nd
X - 64th
. - note dotted
|-n-|  - n-tuplets


Tablature Legend
----------------
L - tied note
x - dead note
g - grace note
(n) - ghost note
> - accentuded note
NH - natural harmonic
AH - artificial harmonic
TH - tapped harmonic
SH - semi harmonic
PH - pitch harmonic
h - hammer on
p - pull off
b - bend
br - bendRelease
pb - preBend
pbr - preBendRelease
brb - bendReleaseBend
\n/ - tremolo bar dip
\n - tremolo bar dive
-/n - tremolo bar Release up
/n\ - tremolo bar inverted dip
/n - tremolo bar return
-\n - tremolo bar Release down
S - shift slide
s - legato slide
/ -  slide into from below or out of upwards
\ -  slide into from above or out of downwards
~ - vibrato
W - wide vibrato
tr - trill
TP - tremolo picking
T - tapping
S - slap
P - pop
< - fade in
^ - brush up
v - brush down

            
            
Suggest correction
Creating personal tab
Creating personal tab
You can edit any tab online and save it as your Personal.

You can edit, replace or remove any tab part or add personal notes – all changes will be seen only by you.

Personal tabs can be accessed anytime from any device, even offline.
Learn more »
Give kudos to tab author, rate the tab!
1 2 3 4 5
comments
print report bad tab
guest
You may want to rate the tab now too:
select rating
Wanna post a correction for this tab? Suggest correction