Oops, an error
Loading. Please wait.

Falls Apart tab

version 1
version 1

Whole song

Interactive

by Hurt
4,235 views 1 this week
3 commentsread comments
1 2 3 4 5
x 4
add to favorites
×
Save as Personal and add changes to this tab that will be seen only by you. Learn more ›
×
You can save this tab as Personal to edit and correct it or add notes. All changes will be seen only by you. Learn more »
launch autoscroll
font size
0
reset
how to read this tab
guitar tuner
edit
Autoscroll
slow
fast
+/-
esc
set tempo
stop
Author
Difficulty
Im not entirely sure how the song goes yet and this is my 1st time tabbing,but Im sure
is close to what is played throughout the song's intro and chorus as for the rest I would
a electric since all I have for now is a(n) acoustic.the intro is not exact because the 
they play in might be in (1/2)down tunning eb,Bb,...if u combine my tab with
on the web u should get the hang of it.


Hurt-Falls apart
(try playing the song with your fingers instead of a pick to get that low sound)
e:--------------------------------------------|
B:-----1-------1--------0---------------------|
G:-----2-------0--------0---------------------|
D:-----2-------2--------0---------------------|
A:--0~------3~-3-------(0)-4h5-5-5-4s2h4h2----|
E:------------------3~-----0-0-0-0-0-0-0-0----|
(Chorus)
    Cause evrything just falls apart!...(distortion)
e:---------------------------------------------------------|
B:---------------------------------------------------------|
G:---------------------------------------------------------|
D:------------------4~~~~--------------66666-6-6-666-------|>>>>>2x>>>>>>>
A:--2~~~~~~---------4~~~~--------------66666-6-6-666-2h4h2-|
E:--0~~~~~~---------2~~~~--------------44444-4-4-444-----0-|

---------------------------------------------------------------------

          I cracked my head and broke my  <3x>           heart!...
e:------------------------------------------/-------------------|
B:------------------------------------------/-------------------|
G:------------------------------------------/-------------------|
D:----------------------(4444)-4~~----------/--------------6~~~-|
A:-(2222)-2~~-----------(4444)-4~~-----<3x>-/--------------6~~~-|
E:-(0000)-0~~-----------(2222)-2~~----------/--------------4~~~-|
   P.m                  P.m.
Thats all i have so far.Since people have been wanting it I figured I do my part so I
this helps u all out somewhat.

            
            
Suggest correction
Creating personal tab
Creating personal tab
You can edit any tab online and save it as your Personal.

You can edit, replace or remove any tab part or add personal notes – all changes will be seen only by you.

Personal tabs can be accessed anytime from any device, even offline.
Learn more »
comments
print report bad tab
3 comments total.
0 reply
irishmatt1992 895 Dec 22, 2006 11:32 AM

Of course it could use some more work, are you sure it's not in a dropped tunning?

0 reply
warpedoutside 51 Jan 17, 2007 09:55 AM

well you can check the video of the two guitarist playing it acoustic on their myspace. I've ben trying to figure out how this is played exactly but it's a bit hard to follow when you don't know what tuning exactly.

0 reply
Raven91790 78 Feb 12, 2007 02:33 PM

Cause everything just falls apart!...(distortion)
e:---------------------------------------------------------|
B:---------------------------------------------------------|
G:---------------------------------------------------------|
D:------------------4~~~~--------------66666-6-6-666-------|>>>>>2x>>>>>>>
A:--2~~~~~~---------4~~~~--------------66666-6-6-666-2h4h2-|
E:--0~~~~~~---------2~~~~--------------44444-4-4-444-----0-|

Is actually more like...

e:---------------------------------------------------------|
B:---------------------------------------------------------|
G:---------------------------------------------------------|
D:--2---2-2-4-4-4-4-4-4-6---6-6-6-6-8/9\8-4----------------|
A:--2---2-2-4-4-4-4-4-4-6---6-6-6-6-8/9\8-4----------------|
E:--0---0-0-2-2-2-2-2-2-4---4-4-4-4-6/7\6-2----------------|

that?

guest
You may want to rate the tab now too:
select rating
Wanna post a correction for this tab? Suggest correction