Oops, an error
Loading. Please wait.

House Carpenter tab

version 1
version 1

Whole song

Interactive

by Hurt
4,934 views 6 this week
4 commentsread comments
1 2 3 4 5
x 6
add to favorites
×
Save as Personal and add changes to this tab that will be seen only by you. Learn more ›
×
You can save this tab as Personal to edit and correct it or add notes. All changes will be seen only by you. Learn more »
launch autoscroll
font size
0
reset
how to read this tab
guitar tuner
edit
Autoscroll
slow
fast
+/-
esc
set tempo
stop
Author
Difficulty
e-------------------------------|
B--11---------------------------|
G----11-10-8--------------------|
A-------------------------------|
D-------------------------------|
E-------------------------------|x4

e---------------------|
B--12-----------------|
G----12-11-9----------|
D---------------------|
A---------------------|
E---------------------|x6


Switches back and forth for a while then:

e----------------|
B--9-------------|
G---11-10-8------|
D----------------|
A----------------|
E----------------| for a while then:

e------------------|
B------------------|
G----8----11-------|
D--8---------------|
A------------------|
E------------------| sort of fast for a while

then

e------------------------|
B------------------------|
G----8----11h10h11-------|
D--8---------------------|
A------------------------|
E------------------------| one then repeats:

e------------------|
B------------------|
G----8----11-------|
D--8---------------|
A------------------|
E------------------| for a time.

He starts singing just doing:

e-------------------|
B--*9-9-9-9-9-------|
G-------------11-10-|
D-------------------|
A-------------------|
E-------------------| for a long time

then the song just repeats from the start.

            
            
Suggest correction
Creating personal tab
Creating personal tab
You can edit any tab online and save it as your Personal.

You can edit, replace or remove any tab part or add personal notes – all changes will be seen only by you.

Personal tabs can be accessed anytime from any device, even offline.
Learn more »
comments
print report bad tab
4 comments total. Showing first comments.
0 reply
GuitarofWolf 10 Jan 07, 2007 03:56 AM

Great Tab. Its completly Correct!!!!

0 reply
triviummetal 10 Feb 10, 2007 08:18 PM

no its wrong instead of starting on the 6th string in the first melody its the fifth string and the second melody is wrong it supposed to be this

------------------------------------
--------12--9-----------------------
---------------11--10---------------
------------------------------------
------------------------------------
------------------------------------

the first part is played 4x and the second is played 6x

0 reply
toxgoboom 72 Feb 26, 2007 10:09 AM

hurt usually play in drop Db (drop D down a half step), so is this song that way also? if so, these notes need to go down a fret.

guest
You may want to rate the tab now too:
select rating
Wanna post a correction for this tab? Suggest correction