Oops, an error
Loading. Please wait.

Pandora bass

by Hurt
785 views 1 this week
no commentswrite comment
1 2 3 4 5
1 last vote to show rating
add to favorites
×
Save as Personal and add changes to this tab that will be seen only by you. Learn more ›
×
You can save this tab as Personal to edit and correct it or add notes. All changes will be seen only by you. Learn more »
launch autoscroll
font size
0
reset
guitar tuner
edit
Autoscroll
slow
fast
+/-
esc
set tempo
stop
Difficulty
Tabbed by: Nightwingvyse via the HURT Message Board.

Intro:

-------------------------------------------------------------------|
-------------------------------------------------------------------|
-------------------5-5-5-5-5-5-5-5-1-1-1-1-1-1-1-1-6-6-6-6-6-6-6-6-|
0-0-0-0-0-0-0-0----------------------------------------------------|

-------------------------------------------------------------------|
-------------------------------------------------------------------|
-------------------5-5-5-5-5-5-5-5-1-1-1-1-1-1-1-1-6-6-6-6-6-6-6-6-|
0-0-0-0-0-0-0-0----------------------------------------------------|

----------------------------------------------------------------|
----------------------------------------------------------------|
7-7-7-7-7-7-7-7-3-3-3-3-3-3-3-3-6-6-6-6-6-6-6-6-9-9-9-9-9-9-9-9-|
----------------------------------------------------------------|

Verses:

-------------------------------------------------------------------|
-------------------------------------------------------------------|
-------------------5-5-5-5-5-5-5-5-1-1-1-1-1-1-1-1-6-6-6-6-6-6-6-6-|
0-0-0-0-0-0-0-0----------------------------------------------------|

----------------------------------------------------------------|
----------------------------------------------------------------|
7-7-7-7-7-7-7-7-3-3-3-3-3-3-3-3-6-6-6-6-6-6-6-6-9-9-9-9-9-9-9-9-|
----------------------------------------------------------------|

Repeat twice for the second verse and three times for the third.

Bridges ("It's Alright She Says"):

--------------------------------------------------------------|
--------------------------------------------------------------|
7---7---7---7---5---5---5---5---4---4---4---4---3---3---3---3-|
--------------------------------------------------------------|

--------------------------------------------------------------|
--------------------------------------------------------------|
7---7---7---7---5---5---5---5---4---4---4---4---3---3---3---3-|
--------------------------------------------------------------|

Bridge Between First And Second Verses:

----------------------------------------------------------------|
----------------------------------------------------------------|
2-2-2-2-2-2-2-2-2-2-2-2-2-2-2-2-2-2-2-2-2-2-2-2-6-6-6-6-6-6-6-6-|
----------------------------------------------------------------|

Choruses:

----------------------------------------------------------------|
----------------------------------------------------------------|
2-2-2-2-2-2-2-2-2-2-2-2-2-2-2-2-2-2-2-2-2-2-2-2-6-6-6-6-6-6-6-6-|
----------------------------------------------------------------|

------------------------------------------------------------------------|
------------------------------------------------------------------------|
-------7------7-----------7------6---------7-------7----------7-------6-|
0-0-0----0-0-------0-0-0----0-0-----0-0-0-----0-0------0-0-0-----0-0----|

Repeat the above twice for both choruses.

Then finish the choruses off with:

----------------------------------------------------------------|
----------------------------------------------------------------|
2-2-2-2-2-2-2-2-2-2-2-2-2-2-2-2-2-2-2-2-2-2-2-2-6-6-6-6-6-6-6-6-|
----------------------------------------------------------------|

            
            
Suggest correction
Creating personal tab
Creating personal tab
You can edit any tab online and save it as your Personal.

You can edit, replace or remove any tab part or add personal notes – all changes will be seen only by you.

Personal tabs can be accessed anytime from any device, even offline.
Learn more »
Give kudos to tab author, rate the tab!
1 2 3 4 5
comments
print report bad tab
guest
Wanna post a correction for this tab? Suggest correction