Oops, an error
Loading. Please wait.

Sweet Delilah tab

version 2
version 2

Whole song

Interactive

by Hurt
6,914 views 21 this week
3 commentsread comments
1 2 3 4 5
x 5
add to favorites
×
Save as Personal and add changes to this tab that will be seen only by you. Learn more ›
×
You can save this tab as Personal to edit and correct it or add notes. All changes will be seen only by you. Learn more »
launch autoscroll
font size
0
reset
how to read this tab
guitar tuner
edit
Autoscroll
slow
fast
+/-
esc
set tempo
stop
E----------------------------------------|
B-8--8---7--7---5--5---5---7-------------|
G--0--0---0--0---0--0---0---0—-----------|
D----------------------------------------|
A-7-7----5-5----3-3----3---5-------------|
E----------------------------------------|


E-8--8--7--7--5--5--3--3-----------------|
B--0--0--0--0--0--0--0--0----------------|
G----------------------------------------|
D-7-7---5-5---4-4---2-2------------------|
A----------------------------------------|
E----------------------------------------|


E-2--2--2--2--7---7--5--3--2-------------|
B--0--0--0--0----------------------------|
G----------------------------------------|
D-1-1---1-1---9---9--7--5--4-------------|
A----------------------------------------|
E----------------------------------------|

E--- -----------------------------------------|
B----3h5--5--5--5p3--0-----------5------------|
G---------------------2--0--2s4-----------7---|
D-------------------------------------4h5-----|
A---------------------------------------------|
E---------------------------------------------|

E------------------------------|
B----12--10--8--7--8-----------|
G----12--11--9--7--9---7—9-7---|
D------------------------------|
A------------------------------|
E------------------------------|

E------------------------------|
B----4p2p0-----0--2--0-----0---|
G-----------4----------4-------|
D------------------------------|
A------------------------------|
E------------------------------|

E-------------------------------------------------|
B-------------------------------------------------|
G---------------9---------------------------------|
D--------7h9h10-----------7h9h10---------9h10h12--|
A--7h9h10-----------7h9h10--------9h10h12---------|
E-------------------------------------------------|

E--- --------------------------------------|
B------------------------------------------|
G----12-11p9-11—9s7-9-7s4-2-0-----------7--|
D-----------------------------2-0-2-2s4----|
A------------------------------------------|
E------------------------------------------|
Suggest correction
Creating personal tab
Creating personal tab
You can edit any tab online and save it as your Personal.

You can edit, replace or remove any tab part or add personal notes – all changes will be seen only by you.

Personal tabs can be accessed anytime from any device, even offline.
Learn more »
comments
print report bad tab
3 comments total.
0 reply
We_Are_Lions 10 Mar 13, 2011 11:29 AM

Great tab! I can work with this. Thanks

+1 reply
dmanley 10 Jan 23, 2012 03:18 PM

I think this part:
E------------------------------|
B----4p2p0-----0--2--0-----0---|
G-----------4----------4-------|
D------------------------------|
A------------------------------|
E------------------------------|

Needs to be played moved down to the on the D and G strings.

guest
Wanna post a correction for this tab? Suggest correction