Oops, an error
Loading. Please wait.

Chartered Trips Chords

version 2
version 2

Whole song

3,949 views 15 this week
no commentswrite comment
1 2 3 4 5
please rate
add to favorites
launch autoscroll
font size
0
reset
transpose
0
reset
simplify chords
display chords
guitar tuner
Tab Pro tools
  • play this tab
  • loop segment
  • change instrument
  • show fretboard
  • metronome
×
Best way to learn
"Chartered Trips"
Autoscroll
slow
fast
+/-
esc
set tempo
stop
Contributor
Chartered Trips- Husker Du

Chords:

F# 244XXX  G# 466XXX  B X2440X  C# X466XX  Asus2 X02200  G 355033

Intro Riff (Played Twice)
e:-------------------------------------------------------------------------|
B:-----0-----------0-----------0-----------0-----------0-----------0-------|
G:-----4-----------4-----------4-----------4-----------4-----------4-------|
D:-------------------------2-------2---------------------------------------|
A:-2-------2---4-------4---------------0-------0---------------------------|
E:-------------------------------------------------3-------3---2-------2---|

Verse Riff (play bass notes with thumb)
   F#            G#                B                C#
e:----------------------------------------------------0-0---------------------|
B:---------------------------------0---0---0---0------0-0--4--0-0----0-0------|
G:---------------------------------4---4---4---4-sl-6---------4-4----4-4----
D:-4---4---4---4-6---6---6---6-6---4---4---4---4-sl-6---------6-6----6-6---
A:-4---4---4---4-6---6---6---6-6---2---2---2---2-sl-4---------------------
E:-2---2---2---2-4---4---4---4-4-------------------------------------------

F#                  G#              B           C#
Well I picked up my belongings in a nylon carry-all
F#                G#         B        C# 
I hear the porter call
F#                  G#            B               C#
Said "The sky's the limit on this chartered trip away,"
F#                  G#         Asus2
I guess I'd better stay

F#               G#             B             C# 
Out there on the desert, I see trees on every wall
F#             G#           B        C#
Nothing's ever solved
F#                  G#            B               C# 
Said "The sky's the limit on this chartered trip away,"
F#               Asus2          
Guess I'd better stay away

Riff 3 (played twice)
e:---------------------------------------------------------------------------|
B:-----0-----------0-----------0-----------0-----------0-----------0---------|
G:-----4-----------4-----------4-----------4-----------4-----------4---------|
D:-------------------------2-------2-----------------------------------------|
A:-2-------2---4-------4---------------0-------0-----------------------------|
E:-------------------------------------------------3-------3---2-------2---3-|

e:--------------------|
B:--0-----------0-----|
G:--4-----------4-----|
D:--------------------|
A:--------------------|
E:------3---2-------2-|

CHORUS (The G chord descends as follows: 355033,  354033,  350033):

G                         Asus2 
I thought I owed myself a trip away
G                            Asus2
I wanted to go to places I have never been away
G                                 Asus2
I looked at the pictures, imagine where they lay
G                                        Asus2                         G    
Away on a beach by the sand, where their clothes all lay, clothes all, clothes
 
all lay away


F#             G#              B           C#
I picked up my belongings in a nylon carry-all
F#                G#         B        C# 
I hear the porter call
F#          G#        B               C#   
Horizon is oblivious, chartered trip away
F#                  G#        Asus2
I guess I'd better stay

F#               G#             B             C# 
Out there on the desert, I see trees on every wall
F#             G#           B        C#
Nothing's ever solved
F#          G#        B               C#   
Horizon is oblivious, chartered trip away
F#                      Asus2
Guess I guess I'd better stay away


Riff 3
Said "There's no returning from this chartered trip away."
Riff 3
Said "There's no returning from this chartered trip away."


RPT. CHORUS


F#           G#              B           C#
Picked up my belongings in a nylon carry-all
F#              G#         B        C# 
Hear the porter call
F#               G#                  B               C#
Said "There's no returning from this chartered trip away,"
F#                 G#      Asus2
I guess I'd better stay

F#                 G#                 B              C#
Said "There's no returning from this chartered trip away,"
F#                 G#                 B              C#
Said "There's no returning from this chartered trip away,"
F#                 G#                 B              C#
Said "There's no returning from this chartered trip away,"
F#        Asus2 
Said no return......


Outro (Riff 4) played over Asus2 to fade: 

e:------------------------------------|
B:-5-5-5-5---5-5-5-5---5-5-5-5---0-0--|
G:-0-0-0-0---0-0-0-0---0-0-0-0---0-0--|
D:-7-7-7-7---7-7-7-7---7-7-7-7---7-7--|
A:-7---------7---------7--------------|
E:------------------------------------|
comments
We did not receive enough feedback on this tab! Please rate:
print report bad tab
1 2 3 4 5
I want to post or [tab]
guest
You may want to rate the tab now too:
select rating
Please do not post tabs as comments. Select "correction" instead!