Oops, an error
Loading. Please wait.

Dont Want To Know If You Are Lonely Tab

26,134 views 45 this week
no commentswrite comment
1 2 3 4 5
accurate
x 11
add to favorites
launch autoscroll
font size
0
reset
how to read this tab
guitar tuner
Tab Pro tools
  • play this tab
  • loop segment
  • change instrument
  • show fretboard
  • metronome
×
Best way to learn
"Dont Want To Know If You Are Lonely"
Autoscroll
slow
fast
+/-
esc
set tempo
stop
Contributor
HÜSKER DÜ - Don´t want to know if you are lonely

Tabbed by BongFuFighter

s=Stop Vibration
b=Bend Strings
r= Release bend
h=hold

Guitar:

Intro 

  Em                   B                    C        G                   
e:----0------0--0-------------------------|-0-0-0--------------------------|
B:----0------0--0------0------0--0--0--0--|-5-5-3--0-----0--(0)-(0)--------|
G:----0------0--0------4------4--4--4--4--|--------4--2--4-b-5-r-4---------|
D:----2------2--2------4------4--4--4--4--|--------------------------------|
A:----2------2--2------2------2--2--2--2--|--------------------------------|
E:-0---------0--0-------------------------|-------------------------3--3-2-|


Verse 


e:----0------0--0-------------------------|------------------------------------------|
B:----0------0--0------0------0--0--0--0--|--0----0--0--0--0-------------------------|
G:----0------0--0------4------4--4--4--4--|--5----5--5--5--5-------------------------|
D:----2------2--2------4------4--4--4--4--|--5----5--5--5--5---0--0-0---0s-0s-0s-----|
A:----2------2--2------2------2--2--2--2--|--3----3--3--3--3---2--2-2---xs-xs-xs-----|
E:-0---------0--0-------------------------|--------------------3--3-3---2s-2s-2s-----|


Chorus 

e:------------------------------|--0--0--0--0--0--0------|
B:------------------------------|--0--0--0--0--0--0------|
G:---4---4-4-4----5---5-5-5-----|--2--2--2--2--2--2------|
D:---4---4-4-4----5---5-5-5-----|--2--2--2--2--2--2------|
A:---2---2-2-2----3---3-3-3-----|--0--0--0--0--0--0------|
E:------------------------------|------------------------|


Solo



e:|-0-0-0---------|-0-0-0---------|-0-0-0---------|-0-0-0---------|
B:|-5-5-3--0------|-5-5-3--0------|-5-5-3--0------|-5-5-3--0------|
G:|--------4--2-4-|--------4--2-4-|--------4--2-4-|--------4--2-4-|
D:|---------------|---------------|---------------|---------------|
A:|---------------|---------------|---------------|---------------|
E:|---------------|---------------|---------------|---------------|

e:|---------------|---------------|---------------|-----0---------|
B:|-5-5-3--0------|-5-5-3--0------|-5-5-3--0------|-----3--0------|
G:|--------4--2-4-|--------4--2-4-|--------4--2-4-|-4~-----4--2-4-|
D:|---------------|---------------|---------------|---------------|
A:|---------------|---------------|---------------|---------------|
E:|---------------|---------------|---------------|---------------|

e:|---------------|---------------|---------------|---------------|
B:|-5-5-3--0------|-5-5-3--0------|-5-5-3--0------|-5-5-3--0------|
G:|--------4--2-4-|--------4--2-4-|--------4--2-4-|--------4--2-4-|
D:|---------------|---------------|---------------|---------------|
A:|---------------|---------------|---------------|---------------|
E:|---------------|---------------|---------------|---------------|

e:|---------------|---------------|---------------|---------------|
B:|-5-5-3--0------|-5-5-3--0------|-5-5-3--0------|---------------|
G:|--------4--2-4-|--------4--2-4-|--------4--2---|--4~-----------|
D:|---------------|---------------|---------------|---------------|
A:|---------------|---------------|---------------|---------------|
E:|---------------|---------------|---------------|---------------|


Interlude 

Guitar 1

e:|---1-----------|---0-----------|---1-----------|---0-----------|
B:|-----1---------|-----0---------|-----1---------|-----0---------|
G:|-------0---0---|-------0---0---|-------0---0---|-------0---0---|
D:|-3-------3---3-|-2-------2---2-|-3-------3---3-|-2-------2---2-|
A:|---------------|---------------|---------------|---------------|
E:|---------------|---------------|---------------|---------------|

e:|---1-----------|---0-----------|---1-----------|---0-----------|
B:|-----1---------|-----0---------|-----1---------|-----0---------|
G:|-------0---0---|-------0---0---|-------0---0---|-------0h----0-|
D:|-3-------3---3-|-2-------2---2-|-3-------3---3-|-2-------------|
A:|---------------|---------------|---------------|---------------|
E:|---------------|---------------|---------------|---------------|

(Guitar 2 if playing without a Bass)

e:|---------------|---------------|---------------|---------------|
B:|---------------|---------------|---------------|---------------|
G:|--0-0-0-0-0-0--|--0-0-0-0-0-0--|--0-0-0-0-0-0--|--0-0-0-0-0-0--|
D:|--2-2-2-2-2-2--|--2-2-2-2-2-2--|--2-2-2-2-2-2--|--2-2-2-2-2-2--|
A:|--3-3-3-3-3-3--|--2-2-2-2-2-2--|--3-3-3-3-3-3--|--2-2-2-2-2-2--|
E:|---------------|---------------|---------------|---------------|

e:|---------------|---------------|---------------|---------------|
B:|---------------|---------------|---------------|---------------|
G:|--0-0-0-0-0-0--|--0-0-0-0-0-0--|--0-0-0-0-0-0--|--0-0-0-0-0-0--|
D:|--2-2-2-2-2-2--|--2-2-2-2-2-2--|--2-2-2-2-2-2--|--2-2-2-2-2-2--|
A:|--3-3-3-3-3-3--|--2-2-2-2-2-2--|--3-3-3-3-3-3--|--2-2-2-2-2-2--|
E:|---------------|---------------|---------------|---------------|



Arrangement:

Intro     x2
Verse     x4
Chorus    x4
Verse     x4
Chorus    x4
Solo      x4
Interlude x4
Verse     x4
Chorus    x8


Lyrics

I'm curious to know exactly how you are
I keep my distance but that distance is too far
It reassures me just to know that you're okay
But I don't want you to go on needing me this way

And I don't want to know if you are lonely
Don't want to know if you are less than lonely
Don't want to know if you are lonely
Don't want to know, don't want to know

The day you left me, left me feeling oh so bad
Still I'm not sure about all the doubts we had
From the beginning we both knew it wouldn't last
Decisions have been made the die has been cast

The phone is ringing and the clock says four A.M.
If it's your friends, well I don't want to hear from them
Please leave your number and a message at the tone
Or you can just go on and leave me alone
comments
print report bad tab
I want to post or [tab]
guest
You may want to rate the tab now too:
select rating
Please do not post tabs as comments. Select "correction" instead!