Oops, an error
Loading. Please wait.

Flip Your Wig Chords

version 1
version 1

Whole song

1,353 views 1 this week
no commentswrite comment
1 2 3 4 5
2 more votes to show rating
add to favorites
launch autoscroll
font size
0
reset
transpose
0
reset
simplify chords
display chords
guitar tuner
Autoscroll
slow
fast
+/-
esc
set tempo
stop
Help us to improve Ultimate-Guitar.com Take our survey!
×
FLIP YOUR WIG - Bob Mould

Verse Chords:
G  320033  G/F#  2X0033  Csus2  X32033  Csus2/B  X20033  D  X0032X

Chorus Chords:
B5  X2440X  B5/A  X044XX  D5  X5770X

Verse Riff
  G             G/F#         Csus2   C/B  D
e:------3--3---------3--3----3----3------------------|
B:------3--3---------3--3----3----3---------------3--|
G:------0--0---------0--0----0----0--0----2----2--2--|
D:-0----0--0---------0--0----2-------0----0----0--0--|
A:-2-------------------------3-------2----0----0--0--|
E:-3------------2------------------------------------|
   Wel -come    to      this world that we live   in etc.

Intro: Verse Riff X 4

G       G/F#    Csus2 Csus/B  D
Welcome to this world that we live in
G      G/F#   Csus2 Csus/B D
Normal people going for a spin
G            G/F#  Csus2 Csus/B  D
And we don't rea - lize
        G       G/F#    Csus2 Csus/B  D
That it changes all our lives

B5    B5/A    B5            B5/A
Every day somebody's asking questions
B5      B5/A     B5   D5  
Someone wants to know if I know
B5      B5/A        B5        B5/A    
All the answers, or am I just guessing?
B5                D5
Guess we'll never really know

Sunday section gave us a mention
Grandma's freaking out over the attention
Now my friends abound
They're coming back around

Long distance on the other end
Says I need them for a friend
No matter what I choose
I'm the one they want to use

Solo:
Over Verse and chorus pattern X2

Then this X 8

  G             G/F#         Csus2   C/B  D
e:------3--3---------3--3----3----3------------------|
B:------3--3---------3--3----3----3---------------3--|
G:------0--0---------0--0----0----0--0----2----2--2--|
D:-0----0--0---------0--0----2-------0----0----0--0--|
A:-2-------------------------3-------2----0----0--0--|
E:-3------------2------------------------------------|
   flip         your         wig          you've got to

Then Verse Riff X4 (palm muted G chord over everything apart from D final time)


Then Verse Riff X 8 with the following sung over:

Do we really know?/I don't know
Do we really know?/I don't know
Do we really know?/I don't know
Do we really know?/I don't know
Do we really know?/I don't know
Do we really know?/We thought we knew
Do we really know?/We feel alone
Do we really know?/I'm gonna flip my wig

Hold final G.
Suggest correction
Give kudos to tab author, rate the tab!
1 2 3 4 5
comments
print report bad tab
guest
You may want to rate the tab now too:
select rating
Wanna post a correction for this tab? Suggest correction