Oops, an error
Loading. Please wait.

I Apologize Tab

2,818 views 24 this week
no commentswrite comment
1 2 3 4 5
excellent!
x 3
add to favorites
launch autoscroll
font size
0
reset
how to read this tab
guitar tuner
Autoscroll
slow
fast
+/-
esc
set tempo
stop
Help us to improve Ultimate-Guitar.com Take our survey!
×
Author
Difficulty
intermediate
Note: Keep your little finger on the B and E strings (third fret) throughout.

Intro Riff (also used for verses): 

   G         D         Csus2     D
e:-----3-3-------------3---3---------------|
B:-----3-3---3---3-3---3---3-3---3---3-3---| Played
G:-0---0-0---2---2-2---0---0-0---2---2-2---| four
D:-0---0-0---0---0-0---2-----0---0---0-0---| times
A:-2---------0---------3---2-0-------------|
E:-3---------------------------------------|

Verse (with the above riff):

G         D     Csus2    D
All these crazy mixed up lies
G        D    Csus2 D 
Floating all arou - nd
G      D      Csus2      D         G      D     Csus2   D 
Making these assumptions brings me down

   Csus2                 D                         G
e:-3---3-3---3-3---3-3-----------------------------3---3---3-3---3---|
B:-3---3-3---3-3---3-3---3---3-3---3-3---3-3-------3---3---3-3---3---|
G:-0---0-0---0-0---0-0---2---2-2---2-2---2-2---0-0-0---0---0-0---0---|
D:-2---2-2---2-2---2-2---0---0-0---0-0---0-0-------0---0---0-0---0---|
A:-3---3-3---3-3---3-3-------------------------3-2-2---2---2-2---2---|
E:-------------------------------------------------3---3---3-3---3---|
   And       you   get   tight lipped how do   I know what   you

    Fsus2
e:--------3---------3---------3---------3--|
B:--------3---------3---------3---------3--|
G:--------0---------0---------0---------0--|
D:-----------------------------------------|
A:--3-3-------3-3-------3-3-------3-3------|
E:--1-1-------1-1-------1-1-------1-1------|
    think.

      Csus2       G           D
Is it something I said when I lost my mind?
Csus2      G      D                Csus2    G       D
Temper too quick, makes me blind                       I apolo.......

    G                                       D
e:-----3-3-------3-3-------3-3---3---3-3------------------------------------|
B:-----3-3-------3-3-------3-3---3---3-3---3-3---3---3-3---3---3-3---3---3-3|
G:-----0-0-------0-0---0---0-0---0---0-0---2-2---2---2-2---2---2-2---2---0-0|
D:-0---0-0---0---0-0-----------------------0-0---0---0-0---0---0-0---0------|
A:-2---------0---------2---------3---------------------------------------3-2|
E:-3------------------------------------------------------------------------|
   I         a    -    pol  -    o    -    gize

    G                                       D
e:-----3-3-------3-3-------3-3---3---3-3------------------------------------|
B:-----3-3-------3-3-------3-3---3---3-3---3-3---3---3-3---3---3-3---3---3-3|
G:-----0-0-------0-0---0---0-0---0---0-0---2-2---2---2-2---2---2-2---2---0-0|
D:-0---0-0---0---0-0-----------------------0-0---0---0-0---0---0-0---0------|
A:-2---------0---------2---------3---------------------------------------3-2|
E:-3------------------------------------------------------------------------|
   I         a    -    pol  -    o    -    gize

    G                                       D
e:-----3-3-------3-3-------3-3---3---3-3------------------------------------|
B:-----3-3-------3-3-------3-3---3---3-3---3-3---3---3-3---3---3-3---3---3-3|
G:-----0-0-------0-0---0---0-0---0---0-0---2-2---2---2-2---2---2-2---2---0-0|
D:-0---0-0---0---0-0-----------------------0-0---0---0-0---0---0-0---0------|
A:-2---------0---------2---------3---------------------------------------3-2|
E:-3------------------------------------------------------------------------|
   I         a    -    pol  -    o    -    gize

    G                       Csus2
e:------3-3-------3-3-------3---3---3---|
B:------3-3-------3-3-------3---3---3---| Played
G:------0-0-------0-0-------0---0---0---| three
D:--0---0-0---0---0-0---0---2---2---2---| times
A:--2---------2---------0---3---3---3---|
E:--3-----------------------------------|
    Said      I'm       so-rry   
    Said      I'm       so-rry   
    Said      I'm       so-rry     now

    D
e:----------------------------------------------------------------------|
B:--3---3-3-------3---3---3-3---3-3-3---3---3-3-------3---3-3---3---3---|
G:--2---2-2-------2---2---2-2---2-2-2---2---2-2-------2---2-2---2---2---|
D:--0---0-0-------0---0---0-0---0-0-0---0---0-0-------0---0-0---0---0---|
A:------------3-2-0-------------------------------3-2-0-----------------|
E:----------------------------------------------------------------------|
    I'ts your turn    can you look me in the eyes         and a-pol-o-

   Csus2                           D
e:-3-3---3---3-3---3---3-3-3-3---3-----|
B:-3-3---3---3-3---3---3-3-3-3---3-3---|
G:-0-0---0---0-0---0---0-0-0-0---0-2---|
D:-2-2---2---2-2---2---2-2-2-2---2-0---|
A:-3-3---3---3-3---3---3-3-3-3---3-----|
E:-------------------------------------|
   gize

   G         D         Csus2     D
e:-----3-3-------------3---3---------------|
B:-----3-3---3---3-3---3---3-3---3---3-3---| Played
G:-0---0-0---2---2-2---0---0-0---2---2-2---| four
D:-0---0-0---0---0-0---2-----0---0---0-0---| times
A:-2---------0---------3---2-0-------------|
E:-3---------------------------------------|

   G      D   Csus2 D        G       D       Csus2  D
So now we sit arou- nd we're staring at the walls
G  D        Csus2 D        G         D     Csus2    D
We don't do any - thing at all

   Csus2                 D                         G
e:-3---3-3---3-3---3-3-----------------------------3---3---3-3---3---|
B:-3---3-3---3-3---3-3---3---3-3---3-3---3-3-------3---3---3-3---3---|
G:-0---0-0---0-0---0-0---2---2-2---2-2---2-2---0-0-0---0---0-0---0---|
D:-2---2-2---2-2---2-2---0---0-0---0-0---0-0-------0---0---0-0---0---|
A:-3---3-3---3-3---3-3-------------------------3-2-2---2---2-2---2---|
E:-------------------------------------------------3---3---3-3---3---|
   Take   out   the      garbage,  maybe,      but the dishes don't get

    Fsus2
e:--------3---------3---------3---------3--|
B:--------3---------3---------3---------3--|
G:--------0---------0---------0---------0--|
D:-----------------------------------------|
A:--3-3-------3-3-------3-3-------3-3------|
E:--1-1-------1-1-------1-1-------1-1------|
    done.

      Csus2       G           D
Is it something I said when I lost my mind?
Csus2      G      D                Csus2    G       D
Temper too quick, makes me blind                       I apolo.......

    G                                       D
e:------3-3-------3-3-------3-3---3---3-3------------------------------------|
B:------3-3-------3-3-------3-3---3---3-3---3-3---3---3-3---3---3-3---3---3-3|
G:------0-0-------0-0---0---0-0---0---0-0---2-2---2---2-2---2---2-2---2---0-0|
D:--0---0-0---0---0-0-----------------------0-0---0---0-0---0---0-0---0------|
A:--2---------0---------2---------3---------------------------------------3-2|
E:--3------------------------------------------------------------------------|
    I         a    -    pol  -    o    -    gize

    G                                       D
e:------3-3-------3-3-------3-3---3---3-3------------------------------------|
B:------3-3-------3-3-------3-3---3---3-3---3-3---3---3-3---3---3-3---3---3-3|
G:------0-0-------0-0---0---0-0---0---0-0---2-2---2---2-2---2---2-2---2---0-0|
D:--0---0-0---0---0-0-----------------------0-0---0---0-0---0---0-0---0------|
A:--2---------0---------2---------3---------------------------------------3-2|
E:--3------------------------------------------------------------------------|
    I         a    -    pol  -    o    -    gize

    G                                       D
e:------3-3-------3-3-------3-3---3---3-3------------------------------------|
B:------3-3-------3-3-------3-3---3---3-3---3-3---3---3-3---3---3-3---3---3-3|
G:------0-0-------0-0---0---0-0---0---0-0---2-2---2---2-2---2---2-2---2---0-0|
D:--0---0-0---0---0-0-----------------------0-0---0---0-0---0---0-0---0------|
A:--2---------0---------2---------3---------------------------------------3-2|
E:--3------------------------------------------------------------------------|
    I         a    -    pol  -    o    -    gize

    G                       Csus2
e:------3-3-------3-3-------3---3---3---|
B:------3-3-------3-3-------3---3---3---| Played
G:------0-0-------0-0-------0---0---0---| three
D:--0---0-0---0---0-0---0---2---2---2---| times
A:--2---------2---------0---3---3---3---|
E:--3-----------------------------------|
    Said      I'm       so-rry   
    Said      I'm       so-rry   
    Said      I'm       so-rry     now

    D
e:----------------------------------------------------------------------|
B:--3---3-3-------3---3---3-3---3-3-3---3---3-3-------3---3-3---3---3---|
G:--2---2-2-------2---2---2-2---2-2-2---2---2-2-------2---2-2---2---2---|
D:--0---0-0-------0---0---0-0---0-0-0---0---0-0-------0---0-0---0---0---|
A:------------3-2-0-------------------------------3-2-0-----------------|
E:----------------------------------------------------------------------|
    I'ts your turn    can you look me in the eyes         and a-pol-o-


   Csus2                           D
e:-3-3---3---3-3---3---3-3-3-3---3-----|
B:-3-3---3---3-3---3---3-3-3-3---3-3---|
G:-0-0---0---0-0---0---0-0-0-0---0-2---|
D:-2-2---2---2-2---2---2-2-2-2---2-0---|
A:-3-3---3---3-3---3---3-3-3-3---3-----|
E:-------------------------------------|
   gize

   G         D         Csus2     D
e:-----3-3-------------3---3---------------|
B:-----3-3---3---3-3---3---3-3---3---3-3---| Played
G:-0---0-0---2---2-2---0---0-0---2---2-2---| four
D:-0---0-0---0---0-0---2-----0---0---0-0---| times
A:-2---------0---------3---2-0-------------|
E:-3---------------------------------------|


G         D     Csus2    D
All these crazy mixed up lies
G        D   Csus2 D
Floating all a-r-ound
G      D      Csus2      D         G     D   Csus2   D
Making these assumptions brings me down

   Csus2                 D                         G
e:-3---3-3---3-3---3-3-----------------------------3---3---3-3---3---|
B:-3---3-3---3-3---3-3---3---3-3---3-3---3-3-------3---3---3-3---3---|
G:-0---0-0---0-0---0-0---2---2-2---2-2---2-2---0-0-0---0---0-0---0---|
D:-2---2-2---2-2---2-2---0---0-0---0-0---0-0-------0---0---0-0---0---|
A:-3---3-3---3-3---3-3-------------------------3-2-2---2---2-2---2---|
E:-------------------------------------------------3---3---3-3---3---|
       And   you   get   tight-lipped, how do  I know  what you

    Fsus2
e:--------3---------3---------3---------3--|
B:--------3---------3---------3---------3--|
G:--------0---------0---------0---------0--|
D:-----------------------------------------|
A:--3-3-------3-3-------3-3-------3-3------|
E:--1-1-------1-1-------1-1-------1-1------|
    think.

      Csus2       G           D
Is it something I said when I lost my mind?
Csus2      G      D                Csus2    G       D
Temper too quick, makes me blind                       I apolo.......

    G                                       D
e:------3-3-------3-3-------3-3---3---3-3------------------------------------|
B:------3-3-------3-3-------3-3---3---3-3---3-3---3---3-3---3---3-3---3---3-3|
G:------0-0-------0-0---0---0-0---0---0-0---2-2---2---2-2---2---2-2---2---0-0|
D:--0---0-0---0---0-0-----------------------0-0---0---0-0---0---0-0---0------|
A:--2---------0---------2---------3---------------------------------------3-2|
E:--3------------------------------------------------------------------------|
    I         a    -    pol  -    o    -    gize

    G                                       D
e:------3-3-------3-3-------3-3---3---3-3------------------------------------|
B:------3-3-------3-3-------3-3---3---3-3---3-3---3---3-3---3---3-3---3---3-3|
G:------0-0-------0-0---0---0-0---0---0-0---2-2---2---2-2---2---2-2---2---0-0|
D:--0---0-0---0---0-0-----------------------0-0---0---0-0---0---0-0---0------|
A:--2---------0---------2---------3---------------------------------------3-2|
E:--3------------------------------------------------------------------------|
    I         a    -    pol  -    o    -    gize

    G                                       D
e:------3-3-------3-3-------3-3---3---3-3------------------------------------|
B:------3-3-------3-3-------3-3---3---3-3---3-3---3---3-3---3---3-3---3---3-3|
G:------0-0-------0-0---0---0-0---0---0-0---2-2---2---2-2---2---2-2---2---0-0|
D:--0---0-0---0---0-0-----------------------0-0---0---0-0---0---0-0---0------|
A:--2---------0---------2---------3---------------------------------------3-2|
E:--3------------------------------------------------------------------------|
    I         a    -    pol  -    o    -    gize

    G                       Csus2
e:------3-3-------3-3-------3---3---3---|
B:------3-3-------3-3-------3---3---3---| Played
G:------0-0-------0-0-------0---0---0---| three
D:--0---0-0---0---0-0---0---2---2---2---| times
A:--2---------2---------0---3---3---3---|
E:--3-----------------------------------|
    Said      I'm       so-rry   
    Said      I'm       so-rry   
    Said      I'm       so-rry     now

    D
e:----------------------------------------------------------------------|
B:--3---3-3-------3---3---3-3---3-3-3---3---3-3-------3---3-3---3---3---|
G:--2---2-2-------2---2---2-2---2-2-2---2---2-2-------2---2-2---2---2---|
D:--0---0-0-------0---0---0-0---0-0-0---0---0-0-------0---0-0---0---0---|
A:------------3-2-0-------------------------------3-2-0-----------------|
E:----------------------------------------------------------------------|
    I'ts your turn    can you look me in the eyes         and a-pol-o-


   Csus2                           D
e:-3-3---3---3-3---3---3-3-3-3---3-----|
B:-3-3---3---3-3---3---3-3-3-3---3-3---|
G:-0-0---0---0-0---0---0-0-0-0---0-2---|
D:-2-2---2---2-2---2---2-2-2-2---2-0---|
A:-3-3---3---3-3---3---3-3-3-3---3-----|
E:-------------------------------------|
   gize

   G         D         Csus2     D
e:-----3-3-------------3---3---------------|
B:-----3-3---3---3-3---3---3-3---3---3-3---| Played
G:-0---0-0---2---2-2---0---0-0---2---2-2---| four
D:-0---0-0---0---0-0---2-----0---0---0-0---| times
A:-2---------0---------3---2-0-------------|
E:-3---------------------------------------|

   G         D         Csus2     D
e:-----3-3-------------3---3---------------|
B:-----3-3---3---3-3---3---3-3---3---3-3---| Played
G:-0---0-0---2---2-2---0---0-0---2---2-2---| three
D:-0---0-0---0---0-0---2-----0---0---0-0---| times
A:-2---------0---------3---2-0-------------|
E:-3---------------------------------------|
                       I   a  -  pol - o -
   gize

G    Csus2 G     Csus2 G   D    G(hold).
Suggest correction
Give kudos to tab author, rate the tab!
1 2 3 4 5
comments
print report bad tab
guest
You may want to rate the tab now too:
select rating
Please do not post tabs as comments. Select "correction" instead!