Oops, an error
Loading. Please wait.

Wheels Tab

528 views 1 this week
no commentswrite comment
1 2 3 4 5
please rate
add to favorites
launch autoscroll
font size
0
reset
how to read this tab
guitar tuner
Autoscroll
slow
fast
+/-
esc
set tempo
stop
Help us to improve Ultimate-Guitar.com Take our survey!
×
WHEELS - (Grant Hart)

Intro - Bass (*=harmonics played by the Guitar):

G:----------------|----------------|-7*------5*-----|----------------|
D:----------------|----------------|----------------|----------------|
A:-3-----------1--|-3-----------1--|-3-----------1--|-3-----------1--|
E:-----1---1-1----|-----1---1-1----|-----1---1-1----|-----1---1-1----|

   Dsus4           Eb      Fsus2     Dsus4           Eb      Fsus2 
e:-5---5-5---5-5---6-6-6---8-8-8---|-5---5-5---5-5---6-6-6---8-8-8---|
B:-3---3-3---3-3---4-4-4---6-6-6---|-3---3-3---3-3---4-4-4---6-6-6---|
G:-0---0-0---0-0---0-0-0---0-0-0---|-0---0-0---0-0---0-0-0---0-0-0---| Played
D:---------------------------------|---------------------------------| twice
A:---------------------------------|---------------------------------|
E:---------------------------------|---------------------------------|

Verse:

   Dsus4           Eb      Fsus2     Dsus4           Eb      Fsus2 
e:-5---5-5---5-5---6-6-6---8-8-8---|-5---5-5---5-5---6-6-6---8-8-8---|
B:-3---3-3---3-3---4-4-4---6-6-6---|-3---3-3---3-3---4-4-4---6-6-6---|
G:-0---0-0---0-0---0-0-0---0-0-0---|-0---0-0---0-0---0-0-0---0-0-0---|
D:---------------------------------|---------------------------------|
A:---------------------------------|---------------------------------|
E:---------------------------------|---------------------------------|
   On a date                         with Sharon Tate

   Dsus4           Eb      Fsus2     Dsus4           Eb      Fsus2 
e:-5---5-5---5-5---6-6-6---8-8-8---|-5---5-5---5-5---6-6-6---8-8-8---|
B:-3---3-3---3-3---4-4-4---6-6-6---|-3---3-3---3-3---4-4-4---6-6-6---|
G:-0---0-0---0-0---0-0-0---0-0-0---|-0---0-0---0-0---0-0-0---0-0-0---|
D:---------------------------------|---------------------------------|
A:---------------------------------|---------------------------------|
E:---------------------------------|---------------------------------|
   I'm gonna pick her up             in my new crate

   Dsus4           Eb      Fsus2     Dsus4           Eb      Fsus2 
e:-5---5-5---5-5---6-6-6---8-8-8---|-5---5-5---5-5---6-6-6---8-8-8---|
B:-3---3-3---3-3---4-4-4---6-6-6---|-3---3-3---3-3---4-4-4---6-6-6---|
G:-0---0-0---0-0---0-0-0---0-0-0---|-0---0-0---0-0---0-0-0---0-0-0---|
D:---------------------------------|---------------------------------|
A:---------------------------------|---------------------------------|
E:---------------------------------|---------------------------------|
   Well we go to the movies          we go to a drag

   Dsus4           Eb      Fsus2     Dsus4           Eb      Fsus2 
e:-5---5-5---5-5---6-6-6---8-8-8---|-5---5-5---5-5---6-6-6---8-8-8---|
B:-3---3-3---3-3---4-4-4---6-6-6---|-3---3-3---3-3---4-4-4---6-6-6---|
G:-0---0-0---0-0---0-0-0---0-0-0---|-0---0-0---0-0---0-0-0---0-0-0---|
D:---------------------------------|---------------------------------|
A:---------------------------------|---------------------------------|
E:---------------------------------|---------------------------------|
   The highway patrol                puts us both in a bag

Chorus:

   C#              Eb               Dsus4  
e:--------------------------------|-5---5---5---5--|
B:--------------------------------|-3---3---3---3--|
G:-6-6---6-6-6-6---8-8---8-8-8-8--|-0---0---0---0--|
D:-6-6---6-6-6-6---8-8---8-8-8-8--|----------------|
A:-4-4---4-4-4-4---6-6---6-6-6-6--|----------------|
E:--------------------------------|----------------|
   Wheels, wheels

   C#              Eb               Dsus4  
e:--------------------------------|-5---5---5---5--|
B:--------------------------------|-3---3---3---3--|
G:-6-6---6-6-6-6---8-8---8-8-8-8--|-0---0---0---0--|
D:-6-6---6-6-6-6---8-8---8-8-8-8--|----------------|
A:-4-4---4-4-4-4---6-6---6-6-6-6--|----------------|
E:--------------------------------|----------------|
   Wheels, wheels

Verse 2:

   Dsus4           Eb      Fsus2     Dsus4           Eb      Fsus2 
e:-5---5-5---5-5---6-6-6---8-8-8---|-5---5-5---5-5---6-6-6---8-8-8---|
B:-3---3-3---3-3---4-4-4---6-6-6---|-3---3-3---3-3---4-4-4---6-6-6---|
G:-0---0-0---0-0---0-0-0---0-0-0---|-0---0-0---0-0---0-0-0---0-0-0---|
D:---------------------------------|---------------------------------|
A:---------------------------------|---------------------------------|
E:---------------------------------|---------------------------------|
   Statue of Mary                    sitting on my dash

   Dsus4           Eb      Fsus2     Dsus4           Eb      Fsus2 
e:-5---5-5---5-5---6-6-6---8-8-8---|-5---5-5---5-5---6-6-6---8-8-8---|
B:-3---3-3---3-3---4-4-4---6-6-6---|-3---3-3---3-3---4-4-4---6-6-6---|
G:-0---0-0---0-0---0-0-0---0-0-0---|-0---0-0---0-0---0-0-0---0-0-0---|
D:---------------------------------|---------------------------------|
A:---------------------------------|---------------------------------|
E:---------------------------------|---------------------------------|
   Mother please protect me          help me avoid the crash

   Dsus4           Eb      Fsus2     Dsus4           Eb      Fsus2 
e:-5---5-5---5-5---6-6-6---8-8-8---|-5---5-5---5-5---6-6-6---8-8-8---|
B:-3---3-3---3-3---4-4-4---6-6-6---|-3---3-3---3-3---4-4-4---6-6-6---|
G:-0---0-0---0-0---0-0-0---0-0-0---|-0---0-0---0-0---0-0-0---0-0-0---|
D:---------------------------------|---------------------------------|
A:---------------------------------|---------------------------------|
E:---------------------------------|---------------------------------|
   I've got a really big engine      and it goes vroom, vroom

   Dsus4           Eb      Fsus2     Dsus4           Eb      Fsus2 
e:-5---5-5---5-5---6-6-6---8-8-8---|-5---5-5---5-5---6-6-6---8-8-8---|
B:-3---3-3---3-3---4-4-4---6-6-6---|-3---3-3---3-3---4-4-4---6-6-6---|
G:-0---0-0---0-0---0-0-0---0-0-0---|-0---0-0---0-0---0-0-0---0-0-0---|
D:---------------------------------|---------------------------------|
A:---------------------------------|---------------------------------|
E:---------------------------------|---------------------------------|
   Could be a cradle,                could be a tomb

Chorus:

   C#              Eb               Dsus4  
e:--------------------------------|-5---5---5---5--|
B:--------------------------------|-3---3---3---3--|
G:-6-6---6-6-6-6---8-8---8-8-8-8--|-0---0---0---0--|
D:-6-6---6-6-6-6---8-8---8-8-8-8--|----------------|
A:-4-4---4-4-4-4---6-6---6-6-6-6--|----------------|
E:--------------------------------|----------------|
   Wheels, wheels

   C#              Eb               Dsus4  
e:--------------------------------|-5---5---5---5--|
B:--------------------------------|-3---3---3---3--|
G:-6-6---6-6-6-6---8-8---8-8-8-8--|-0---0---0---0--|
D:-6-6---6-6-6-6---8-8---8-8-8-8--|----------------|
A:-4-4---4-4-4-4---6-6---6-6-6-6--|----------------|
E:--------------------------------|----------------|
   Wheels..........
                                    
   Dsus4           Eb      Fsus2     Dsus4           Eb      Fsus2 
e:-5---5-5---5-5---6-6-6---8-8-8---|-5---5-5---5-5---6-6-6---8-8-8---|
B:-3---3-3---3-3---4-4-4---6-6-6---|-3---3-3---3-3---4-4-4---6-6-6---|
G:-0---0-0---0-0---0-0-0---0-0-0---|-0---0-0---0-0---0-0-0---0-0-0---| Played
D:---------------------------------|---------------------------------| twice
A:---------------------------------|---------------------------------|
E:---------------------------------|---------------------------------|

   Dsus4           Eb    Fsus2 G     Dsus4           Eb    Fsus2 G
e:-5---5-5---5-5---6-6-6---8---10--|-5---5-5---5-5---6-6-6---8---10--|
B:-3---3-3---3-3---4-4-4---6---8---|-3---3-3---3-3---4-4-4---6---8---|
G:-0---0-0---0-0---0-0-0---0---0---|-0---0-0---0-0---0-0-0---0---0---|
D:---------------------------------|---------------------------------|
A:---------------------------------|---------------------------------|
E:---------------------------------|---------------------------------|

   Dsus4           Eb    Fsus2 G     Dsus4           Eb      Fsus2 
e:-5---5-5---5-5---6-6-6---8---10--|-5---5-5---5-5---6-6-6---8-8-8---|
B:-3---3-3---3-3---4-4-4---6---8---|-3---3-3---3-3---4-4-4---6-6-6---|
G:-0---0-0---0-0---0-0-0---0---0---|-0---0-0---0-0---0-0-0---0-0-0---|
D:---------------------------------|---------------------------------|
A:---------------------------------|---------------------------------|
E:---------------------------------|---------------------------------|

   Dsus4           Eb(hold) 
e:-5---5-5---5-5---6---|
B:-3---3-3---3-3---4---|
G:-0---0-0---0-0---0---|
D:---------------------|
A:---------------------|
E:---------------------|

Chorus:

   C#              Eb               Dsus4  
e:--------------------------------|-5---5---5---5--| Repeat
B:--------------------------------|-3---3---3---3--| four times.
G:-6-6---6-6-6-6---8-8---8-8-8-8--|-0---0---0---0--| Slowing
D:-6-6---6-6-6-6---8-8---8-8-8-8--|----------------| during final
A:-4-4---4-4-4-4---6-6---6-6-6-6--|----------------| repeat.
E:--------------------------------|----------------| End on a held Dsus4.
   Wheels, wheels                                                          



Lyrics

On a date with Sharon Tate
I'm gonna pick her up in my new crate
well we go to the movies we go to a drag
the highway patrol puts us both in a bag

wheels, wheels!!!!
wheels, Wheels!!!!

statue of mary sitting on my dash
mother please protect me
help me avoid the crash
I've got a really big engine
and it
goes vroom, vroom
could be a cradle, could be a tomb

wheels, wheels!!!!
wheels, Wheels!!!!
Suggest correction
Give kudos to tab author, rate the tab!
1 2 3 4 5
comments
print report bad tab
guest
You may want to rate the tab now too:
select rating
Please do not post tabs as comments. Select "correction" instead!