Oops, an error
Loading. Please wait.

Hunter tab

by Husky
1,037 views 18 this week
no commentswrite comment
1 2 3 4 5
2 more votes to show rating
add to favorites
×
Save as Personal and add changes to this tab that will be seen only by you. Learn more ›
×
You can save this tab as Personal to edit and correct it or add notes. All changes will be seen only by you. Learn more »
launch autoscroll
font size
0
reset
how to read this tab
guitar tuner
edit
Autoscroll
slow
fast
+/-
esc
set tempo
stop
Capo 2

Intro - Repeat into first verse, slightly different on the last chord.

||---2-----------------2-----------------------------------------------------|
||o----------3-----------2--------------2---------2----------0---------0-----|
||--------4-------------------2---------------2--------------------0---------|
||------4-----4----------2------2-----------4------4-------------0-------0---|
||o--2-----2-----------0----0------------------------------------------------|
||--------------------------------------2-------2------------3-------3-------|


                                       |----------1----------||-------------2-------------|

|---2-----------------0--------------------------------0-----||---------------------------|
|-----------3-----------------1----------0-------0----------o||-0-------0-----0------2----|
|--------2-----------------2---------------------------------||---------------------------|
|------4------4----------2-----2--------------2------2-------||------2------2-------------|
|---5-----5-----------0-----0---------------2------2--------o||----2------2---------------|
|----------------------------------------0-----0-------0-----||-0-----0-------0------2----|


"Let's find somewhere to sleep..."
|-----------2---------2-----------------------------------------------------|
|---3-------------------2--------------2---------2----------0---------0-----|
|--------4-----4-------------2---------------2--------------------0---------|
|------4-----4----------2------2-----------4------4-------------0-------0---|
|---2-----2-----------0----0------------------------------------------------|
|--------------------------------------2-------2------------3-------3-------|

|---2-----------------0------------------------0----------------------------|
|-----------3-----------------1--------0-------------0------2---------------|
|--------2-----------------2------------------------------------------------|
|------4------4----------2-----2------------2------2------------------------|
|---5-----5-----------0-----0-------------2------2--------------------------|
|--------------------------------------0-----0-------0------2---------------|


"Or two..."
|-----------------------------------------------0-------2-------------------|
|---3-------3---------2------2--------------3-------------2-----------------|
|--------4-----4--------2---------------4----------------------2------------|
|------4-----4----------2------2----------4-------4-------2------2----------|
|---2-----2-----------0----0---------2--------2---------0----0--------------|
|---------------------------------------------------------------------------|


|---------0-----------2------------------------------0----------------------|
|-----3-------3---------------2--------0-------0-----------2----------------|
|--------------------------2------------------------------------------------|
|-------4-------4--------2-----2------------2------2------------------------|
|---2-------2---------0-----0-------------2------2--------------------------|
|--------------------------------------0-----0-------0-----2----------------|


"I came here not for love..."
|----------------------------------------------------0----------------------| X4
|---0-------0---------2-------2--------0--------0-------------0-------------|
|--------0-----------------2------------------------------------------------|
|------0-----0-----------2-----2------------2------2------2-------2---------|
|---------------------0-----0-------------2------2------2-------2-----------|
|---3-----3----------------------------0------0------0------0---------------|


"The strangest things come to me in my sleep..."
|----------------------------------------------------0----------------------| X2 
|---0-------0---------2-------2--------0--------0-------------0-------------|
|--------0-----------------2------------------------------------------------|
|------0-----0-----------2-----2------------2------2------2-------2---------|
|---------------------0-----0-------------2------2------2-------2-----------|
|---3-----3----------------------------0------0------0------0---------------|

|--------------------------------------2------------------------------------|
|---0-------0---------2-------2----------------3--------1-------1-----------|
|--------0-----------------2----------------2----------------2--------------|
|------0-----0-----------2-----2----------4------4---------2-----2----------|
|---------------------0-----0----------5-----5----------0-----0-------------|
|---3-----3-----------------------------------------------------------------|

"...each other so well"
|----------------------------| X2
|---0-------2p0-----0--------|
|--------0------2-------2----|
|------0------0---0-------0--|
|----------------------------|
|---3-----3-----3-----3------|

"I will be the hunter..."
|-----------------0--------------0-------------0-----------------|
|---0--------0-------------0-------------0--------------0--------|
|----------------------------------------------------------------|
|--------2------2------2-------2------2------2------2-------2----|
|------2------2------2-------2------2------2------2-------2------|
|---0------0------0------0-------0-----0-------0------0----------|

|-----------------0---------------------------------------------------------|
|---0--------0-------------0----------0--------0---------2-------2----------|
|-------------------------------------------0------0----------2-------------|
|--------2------2------2-------2----------0------0----------2-----2---------|
|------2------2------2-------2---------------------------0-----0------------|
|---0------0------0------0------------3------3------------------------------|


"Oooooooooooooooh"
|-----------------0----------------------------0-----------------| X2
|---0--------0-------------0-----0-------0--------------0--------|
|----------------------------------------------------------------|
|--------2------2------2-------2------2------2------2-------2----|
|------2------2------2-------2------2------2------2-------2------|
|---0------0------0------0-------0-----0-------0------0----------|

|------------0-----2---------------------------------------------|
|---0----------------------3-------3------3------2-------2-------|
|-----------------------4--------------0--------------2----------|
|--------2------------4-----4--------0-----0--------4------4-----|
|------2-----------2-----2---------------------------------------|
|---0------0-----------------------3-----3-------2-----2---------|


                                               let ring----------|

|-----------------0----------------------------0-----------------| X2
|---0--------0-------------0-----0-------0-----------------------|
|----------------------------------------------------------------|
|--------2------2------2-------2------2------2-------------------|
|------2------2------2-------2------2------2---------------------|
|---0------0------0------0-------0-----0-------0-----------------|


There are some very subtle differences in fingerpicking in the second half.

The G is played with the same picking rhythm as it's adjacent chords.

|---2-----------------2-----------------------------------------------------|
|-----------3-----------------2--------2---------2----------0---------0-----|
|--------4-----------------2-----------------2--------------------0---------|
|------4-----4-----------2-----2-----------4------4-------------0-------0---|
|---2-----2-----------0-----0-----------------------------------------------|
|--------------------------------------2-------2------------3-------3-------|

Also this is very slightly different:

"I will be the hunter..."
|-----------------0----------------------------0-----------------| X2
|---0--------0-------------0-----0-------0--------------0--------|
|----------------------------------------------------------------|
|--------2------2------2-------2------2------2------2-------2----|
|------2------2------2-------2------2------2------2-------2------|
|---0------0------0------0-------0-----0-------0------0----------|

|-----------------0---------------------------------------------------------|
|---0--------0-------------0----------0--------0---------2-------2----------|
|-------------------------------------------0------0----------2-------------|
|--------2------2------2-------2----------0------0----------2-----2---------|
|------2------2------2-------2---------------------------0-----0------------|
|---0------0------0------0------------3------3------------------------------|

For the rest just repeat sections above.

Final chords:

               let ring-------|

|--2-----2-----0---------------|
|--3-----2-----0---------------|
|--4-----2-----0---------------|
|--4-----2-----2---------------|
|--2-----0-----2---------------|
|--------------0---------------|
Suggest correction
Creating personal tab
Creating personal tab
You can edit any tab online and save it as your Personal.

You can edit, replace or remove any tab part or add personal notes – all changes will be seen only by you.

Personal tabs can be accessed anytime from any device, even offline.
Learn more »
Give kudos to tab author, rate the tab!
1 2 3 4 5
comments
print report bad tab
guest
You may want to rate the tab now too:
select rating
Wanna post a correction for this tab? Suggest correction