Oops, an error
Loading. Please wait.

Coast To Coast Tab

608 views 1 this week
no commentswrite comment
1 2 3 4 5
please rate
add to favorites
launch autoscroll
font size
0
reset
how to read this tab
guitar tuner
Autoscroll
slow
fast
+/-
esc
set tempo
stop
Help us to improve Ultimate-Guitar.com Take our survey!
×
Contributor
Difficulty
novice
INTRO
e|-----------------------------------------------|
B|-----------------------------------------------|
G|-----------------------------------------------|
D|---7--------10--9---------12--14--------5--7---|
A|---8--------12--10--------14--15--------7--8---|
E|-----------------------------------------------|


VERSE 1 (Play twice)
e|-----------------------------------------------|
B|-----------------------------------------------|
G|-----------------------------------------------|
D|---7--------10--9---------12--14--------5--7---|
A|---8--------12--10--------14--15--------7--8---|
E|-----------------------------------------------|
It feels just like yesterday when you called my name
And now I see what it really means to lose control

e|-----------------------------------------------|
B|-----------------------------------------------|
G|-----------------------------------------------|
D|---7--------10--9---------12--14--------5--7---|
A|---8--------12--10--------14--15--------7--8---|
E|-----------------------------------------------|
And I thought that I, I had everything I could ever need
The fear inside has me paralyzed, but this I know

e|-----------------------------------------------|
B|-----------------------------------------------|
G|-----------------------------------------------|
D|---7--------10--9---------5--7-----------------|
A|---8--------12--10--------7--8-----------------|
E|-----------------------------------------------|
When all that's left is love
That all that's left is love

PRECHORUS
   F         G         C
e|-1---------3---------0---------------|
B|-1---------0---------1---------------|
G|-2---------0---------0---------------|
D|-3---------0---------2---------------|
A|-3---------2---------3---------------|
E|-1---------3---------0---------------|
And who's to say we don't have it made

   F         G         C
e|-1---------3---------0---------------|
B|-1---------0---------1---------------|
G|-2---------0---------0---------------|
D|-3---------0---------2---------------|
A|-3---------2---------3---------------|
E|-1---------3---------0---------------|
When everything is just as it seems

   F         G         C
e|-1---------3---------0---3---1-------|
B|-1---------0---------1---0---1-------|
G|-2---------0---------0---0---2-------|
D|-3---------0---------2---0---3-------|
A|-3---------2---------3---2---3-------|
E|-1---------3---------0---3---1-------|
The plans we've made will give ourselves away

   F         G
e|-1---------3-----------------------------------------------------|
B|-1---------0-----------------------------------------------------|
G|-2---------0-----------------------------------------------------|
D|-3---------0---------7--------10--9---------12--14--------5--7---|
A|-3---------2---------8--------12--10--------14--15--------7--8---|
E|-1---------3-----------------------------------------------------|
And all that's left is love


VERSE 2
e|-----------------------------------------------|
B|-----------------------------------------------|
G|-----------------------------------------------|
D|---7--------10--9---------12--14--------5--7---|
A|---8--------12--10--------14--15--------7--8---|
E|-----------------------------------------------|
We took our steps, took our time, and slowly realized
As the distance goes are we losing hope, you're my everything

e|-----------------------------------------------|
B|-----------------------------------------------|
G|-----------------------------------------------|
D|---7--------10--9---------12--14--------5--7---|
A|---8--------12--10--------14--15--------7--8---|
E|-----------------------------------------------|
That love well spent is still breaking hearts when the world's apart
In your embrace I see we were meant to chase these courageous dreams

e|-----------------------------------------------|
B|-----------------------------------------------|
G|-----------------------------------------------|
D|---7--------10--9---------5--7-----------------|
A|---8--------12--10--------7--8-----------------|
E|-----------------------------------------------|
And all that's left is love
And all that's left is love

PRECHORUS
   F         G         C
e|-1---------3---------0---------------|
B|-1---------0---------1---------------|
G|-2---------0---------0---------------|
D|-3---------0---------2---------------|
A|-3---------2---------3---------------|
E|-1---------3---------0---------------|
And who's to say we don't have it made

   F         G         C
e|-1---------3---------0---------------|
B|-1---------0---------1---------------|
G|-2---------0---------0---------------|
D|-3---------0---------2---------------|
A|-3---------2---------3---------------|
E|-1---------3---------0---------------|
When everything is just as it seems

   F         G         C
e|-1---------3---------0---3---1-------|
B|-1---------0---------1---0---1-------|
G|-2---------0---------0---0---2-------|
D|-3---------0---------2---0---3-------|
A|-3---------2---------3---2---3-------|
E|-1---------3---------0---3---1-------|
The plans we've made will give ourselves away

   F         G         C
e|-1---------3---------0---------------|
B|-1---------0---------1---------------|
G|-2---------0---------0---------------|
D|-3---------0---------2---------------|
A|-3---------2---------3---------------|
E|-1---------3---------0---------------|
And all that's left is love

   F         G         C
e|-1---------3---------0---------------|
B|-1---------0---------1---------------|
G|-2---------0---------0---------------|
D|-3---------0---------2---------------|
A|-3---------2---------3---------------|
E|-1---------3---------0---------------|
And all that's left is love


CHORUS
   C         F         G
e|-0---------1---------1---------------|
B|-1---------1---------0---------------|
G|-0---------2---------0---------------|
D|-2---------3---------0---------------|
A|-3---------3---------2---------------|
E|-0---------1---------3---------------|
And where do we go when these roads run coast to coast?

   C         F         G
e|-0---------1---------1---------------|
B|-1---------1---------0---------------|
G|-0---------2---------0---------------|
D|-2---------3---------0---------------|
A|-3---------3---------2---------------|
E|-0---------1---------3---------------|
And where do we go when these lives are not our own?

   C         F         G
e|-0---------1---------1---------------|
B|-1---------1---------0---------------|
G|-0---------2---------0---------------|
D|-2---------3---------0---------------|
A|-3---------3---------2---------------|
E|-0---------1---------3---------------|
And where do we go when these roads run coast to coast?

   C         F         G
e|-0---------1---------1---------------|
B|-1---------1---------0---------------|
G|-0---------2---------0---------------|
D|-2---------3---------0---------------|
A|-3---------3---------2---------------|
E|-0---------1---------3---------------|
And where do we go when these lives are not our own to hold?

   C         F         G
e|-0---------1---------1---------------|
B|-1---------1---------0---------------|
G|-0---------2---------0---------------|  X4
D|-2---------3---------0---------------|
A|-3---------3---------2---------------|
E|-0---------1---------3---------------|


BRIDGE

   F         G         C
e|-1---------3---------0---------------|
B|-1---------0---------1---------------|
G|-2---------0---------0---------------|
D|-3---------0---------2---------------|
A|-3---------2---------3---------------|
E|-1---------3---------0---------------|
All that's left is love

   F         G         C
e|-1---------3---------0---------------|
B|-1---------0---------1---------------|
G|-2---------0---------0---------------|
D|-3---------0---------2---------------|
A|-3---------2---------3---------------|
E|-1---------3---------0---------------|
And all that's left is love

   F         G         C
e|-1---------3---------0---------------|
B|-1---------0---------1---------------|
G|-2---------0---------0---------------|
D|-3---------0---------2---------------|
A|-3---------2---------3---------------|
E|-1---------3---------0---------------|
And all that's left is love

   F         G         C
e|-1---------3---------0---------------|
B|-1---------0---------1---------------|
G|-2---------0---------0---------------|
D|-3---------0---------2---------------|
A|-3---------2---------3---------------|
E|-1---------3---------0---------------|
And all that's left is love
Suggest correction new What's this?
You can suggest a correction to this tab. Community and Mods will review your correction and vote to approve or reject it.
comments
We did not receive enough feedback on this tab! Please rate:
print report bad tab
1 2 3 4 5
guest
You may want to rate the tab now too:
select rating
Please do not post tabs as comments. Select "correction" instead!