Oops, an error
Loading. Please wait.

Come Thou Fount Of Every Blessing Tab

version 1
version 1

Whole song

  • This is a specific arrangement, not on UG that I have transcribed for a student.
by Hymn
23,289 views 72 this week
no commentswrite comment
1 2 3 4 5
x 11
add to favorites
launch autoscroll
font size
0
reset
how to read this tab
guitar tuner
Autoscroll
slow
fast
+/-
esc
set tempo
stop
Help us to improve Ultimate-Guitar.com Take our survey!
×
Author
Standard Tuning

  C                       G       C       F  C
E|----------------------------------------------------------|
B|----------------------------------------------------------|
G|-----------------------0---------------0--2--0------------| (x2)
D|--0h2--0----------0h2-----0--0----0h2----------0h2--0-----|
A|----------3--3-----------------------------------------3--|
E|----------------------------------------------------------|

    C         Em   F C  F  C         C        Em   F C
E|-----------------------------------------------------------|
B|-----------------------------------------------------------|
G|-------0/5--4--4p2p0--2--0-------------0/5--4--4p2p0/5-----|
D|--0h2-----------------------2------0h2---------------------|
A|-----------------------------------------------------------|
E|-----------------------------------------------------------|

    C                       G       C       F  C
E|-------------------------------------------------------------|
B|-------------------------------------------------------------|
G|-----------------------0---------------0--2--0---------------|
D|--0h2--0----------0h2-----0--0----0h2----------0h2--0--------|
A|----------3--3-----------------------------------------3-----|
E|-------------------------------------------------------------|

[Lead Melody]
(Riff 1)
E|--------------------------------------------------------------|
B|-----------------------8----------------8--10--8--------------|
G|--7/9/7--5--5v----7/9-----7--7v----7/9------------7/9--7--5---|  (x2)
D|--------------------------------------------------------------|
A|--------------------------------------------------------------|
E|--------------------------------------------------------------|

(Riff 2)
E|--------------------------------------------------------------------|
B|-------8/13--12--12p10--8/10\8-------------8/13--12--12p10--8/13----|
G|--7/9---------------------------9v----7\9---------------------------|
D|--------------------------------------------------------------------|
A|--------------------------------------------------------------------|
E|--------------------------------------------------------------------|

(Riff 1)
E|--------------------------------------------------------------|
B|-----------------------8----------------8--10--8--------------|
G|--7/9/7--5--5v----7/9-----7--7v----7/9------------7/9--7--5---|
D|--------------------------------------------------------------|
A|--------------------------------------------------------------|
E|--------------------------------------------------------------|


************************************

| h  Hammer-on
| p  Pull-off
| /  Slide up
| \  Slide down

************************************
Suggest correction
comments
print report bad tab
guest
You may want to rate the tab now too:
select rating
Wanna post a correction for this tab? Suggest correction