Oops, an error
Loading. Please wait.

Amazing Grace Bass Tab

27,762 views 72 this week
1 commentread comment
1 2 3 4 5
x 9
add to favorites
launch autoscroll
font size
0
reset
guitar tuner
Autoscroll
slow
fast
+/-
esc
set tempo
stop
Help us to improve Ultimate-Guitar.com Take our survey!
×
Author
Difficulty
novice
G|-------------------|
D|-0-5-9-5-9-7-5-2-0-|
A|-------------------|
E|-------------------|

G|------------------|
D|-0-2-5-9-5-9-7-12-|
A|------------------|
E|------------------|

G|---------------------------|
D|-9-12-9-12-9-5-2-5-5-5-2-0-|
A|---------------------------|
E|---------------------------|

G|-----------------|
D|-0-2-5-9-5-9-7-5-|  
A|-----------------|
E|-----------------|
Suggest correction
comments
print report bad tab
1 comment total.
0 reply
ancwills 10 Dec 05, 2013 07:59 PM

Nice for a beginner. Thanks!

guest
You may want to rate the tab now too:
select rating
Wanna post a correction for this tab? Suggest correction