Oops, an error
Loading. Please wait.

A Coming Race Tab

version 1
version 1

Whole song

Interactive

1,717 views 3 this week
no commentswrite comment
1 2 3 4 5
please rate
add to favorites
launch autoscroll
font size
0
reset
how to read this tab
guitar tuner
Autoscroll
slow
fast
+/-
esc
set tempo
stop
Help us to improve Ultimate-Guitar.com Take our survey!
×
Contributor
#----------------------------------PLEASE NOTE---------------------------------#
#This file is the author's own work and represents their interpretation of the #
#song. You may only use this file for private study, scholarship, or research. #
#------------------------------------------------------------------------------#

A Comming Race


Artist:		Hypocrisy
Album:		The final Chapter

tapped by Justin.sachinia (Jsachinian@yahoo.de)


_1___ _2__
 a   | b  |	= part a is played on first time, part b on second time
t.p.		= tremolo picking
1		= let ring
h		= hammer on
<		= bend a whole note
>		= pre-bend a whole note
/		= slide


Riff 1

git 1 + 2

|------------------------------|
|------------------------------|
|------------------------------|
|-5--------7-8-----------------|
|-5--------7-8--------5--------|
|-3--------5-6--------5--------|


Riff 2
                               _1__ __2__
                                   |     |
|----------------------------------|-----|
|----------------------------------|-----|
|----------------------------------|-----|
|-2-5-4-2----5-4-2-1-5-4-2-4-5-4-2-|-7-5-|
|----------------------------------|-----|
|----------------------------------|-----|
||______________________________________||
|                t.p.                    |
|                                        |
git 2                          _1__ __2__|
|                                  |     |
|----------------------------------|-----|
|----------------------------------|-----|
|---4--------4-------4-------4-----|-5-4-|
|-5---7-5------7-5-4---7-5-7---7-5-|-----|
|----------------------------------|-----|
|----------------------------------|-----|
 |______________________________________|
                 t.p.


Riff 3

git 1

|------------------|
|------------------|
|------------------|
|-4-5-4-2-4--------|
|------------------|
|------------------|
|         1        |
|                  |
git 2              |
|                  |
|------------------|
|------------------|
|------------------|
|-5-7-5-4-5--------|
|------------------|
          1

Riff 3b

git 1

|----------------------|
|------------------5-5-|
|-----------4-4--------|
|-2-2------------------|
|----------------------|
|----------------------|
|   1                  |
|                      |
git 2                  |
|                      |
|----------------------|
|----------------------|
|------------------4-4-|
|-----------2-2--------|
|-2-2------------------|
|----------------------|
    1

Riff 4

git 1

|-------------------------------------|
|-------------------------------------|
|-------------------------------------|
|-2----4--2--0----0-0----2--0---------|
|------------------------------3-3----|
|-------------------------------------|
|                                     |
git 2                                 |
|                                     |
|-------------------------------------|
|-------------------------------------|
|-------------------------------------|
|-5----7--5--4----3-3----5--3--2-2----|
|-------------------------------------|
|-------------------------------------|


Riff 5

git 1

|----------------------------------------------------------------|
|-5-------5---------7-5-7---7-5-7-3-------3----------------------|
|---6-4-6---6-4-6-4-------4---------4-2-4---4-2-4----------------|
|-------------------------------------------------5-------5------|
|---------------------------------------------------7-5-7---7-5-7|
|----------------------------------------------------------------|
|                                                                |
git 2                                                            |
|                                                                |
|-5-------5-----------------------7-------7----------------------|
|---7-5-7---7-5-7-4-------4---------8-7-8---8-7-8-5-------5------|
|-------------------4-2-4---4-2-4-------------------5-4-5---5-4-5|
|----------------------------------------------------------------|
|----------------------------------------------------------------|
|----------------------------------------------------------------|


git 1

|-----------------------------------------------------------------|
|-5-------5-------6-------6-------3-------3--------7-6-7-7-7-6-7-7|
|---5-4-5---5-4-5-------------------------------------------------|
|-------------------7-6-7---7-6-7---5-6-5---5-6-5-----------------|
|-----------------------------------------------------------------|
|-----------------------------------------------------------------|
|                                                                 |
git 2                                                             |
|                                                                 |
|-8-------8-------8-------8-------7-------7--------5-4-5-5-5-4-5-5|
|--10-910--10-910---6-5-6---6-5-6---5-4-5---5-4-5-----------------|
|-----------------------------------------------------------------|
|-----------------------------------------------------------------|
|-----------------------------------------------------------------|
|-----------------------------------------------------------------|


git 1

|---7-------------0--------|
|-7---710-7-8-710----------|
|--------------------------|
|--------------------------|
|--------------------------|
|--------------------------|
|                          |
git 2                      |
|                          |
|--------------------------|
|---8---7-------7----------|
|-----------9--------------|
|-9---9---9---9---9--------|
|--------------------------|
|--------------------------|


Riff 6

git 1 + 2

  __________________________________t.p.___________________________________
 |                                                                         |
|---------------------------------------------------------------------------|
|---------------------------------------------------------------------------|
|---------------------------------------------------7---7---7----6---6---6--|
|------5---5---5-------4---4---4-------2---2---2--7---7---7----6---5---5----|
|-5------5---5----4------3---3----2------1---1------------------------------|
|---------------------------------------------------------------------------|

  ___________________________t.p._______________________
 |                                                      |
|------------------------------7-----------------7-------|
|---------------------7--9-10----10--9--7--9-10----10--9-|
|--------4---4---4---------------------------------------|
|-4----4---4---4-----------------------------------------|
|--------------------------------------------------------|
|--------------------------------------------------------|


Solo

git 1
     h
|---7^9-10----9----<12>-10-<12----10----------------------------------|
|-7-------------------------------------------------------------------|
|------------------------------------12-11----------------------------|
|------------------------------------------12-11-----------h----------|
|------------------------------------------------12-10-9-10^12---h---9|
|--------------------------------------------------------------10^12--|
|                                                                     |
git 2                                                                 |
|                                                                     |
|---------------------------------------------------------------------|
|---------------------------------------------------------------------|
|---------------------------------------------------------------------|
|--------5----4------------------5----------------4-------------------|
|--------5----4----5--4-----2----5----------------4-------------5-----|
|--------3----2----5--4-----2----3----------------2-------------5-----|


git 1
                                 h
|-----------------------------/14^12----<17---------------------------|
|---------------<10----10------------15-------------------------------|
|------h--------------------------------------------------------12--11|
|----11^12-9--------------------------------------------12--11--------|
|-12-------------------------------------------/14--12----------------|
|---------------------------------------------------------------------|
|                                                                     |
git 2                                                                 |
|                                                                     |
|---------------------------------------------------------------------|
|---------------------------------------------------------------------|
|---------------------------------------------------------------------|
|-----------------5-----4---------------------5----------4------------|
|-4--------2------5-----4-------5---4-----2---5----------4-----------5|
|-4--------2------3-----2-------5---4-----2---3----------2-----------5|

git 1

|----------------------|
|----------------------|
|----------------------|
|-12--14--<14----14----|
|----------------------|
|----------------------|
|                      |
git 2                  |
|                      |
|----------------------|
|----------------------|
|----------------------|
|----------------------|
|----4----2------------|
|----4----2------------|


- Riff 1 is played 2x
- Riff 2 is played 4x
- Riff 3 is played 3x
- Riff 3b is played 1x
- Riff 3 is played 3x
- Riff 3b is played 1x
- Riff 4 is played 1x
- Riff 5 is played 1x
- Riff 6 is played 2x
- Solo
- Riff 2 is played 4x
- Riff 3 is played 3x
- Riff 3b is played 1x
- Riff 4 is played 1x
- Riff 5 is played 2x, on end git 1 holds the 7th fret on the high e-string
                              git 2 holds the 8th fret on the b-string
Suggest correction What's this?
You can suggest a correction to this tab. Community and Mods will review your correction and vote to approve or reject it.
comments
We did not receive enough feedback on this tab! Please rate:
print report bad tab
1 2 3 4 5
I want to post or [tab]
guest
You may want to rate the tab now too:
select rating
Please do not post tabs as comments. Select "correction" instead!