Oops, an error
Loading. Please wait.

Attachment To The Ancestor Tab

459 views 3 this week
no commentswrite comment
1 2 3 4 5
please rate
add to favorites
launch autoscroll
font size
0
reset
how to read this tab
guitar tuner
Autoscroll
slow
fast
+/-
esc
set tempo
stop
Help us to improve Ultimate-Guitar.com Take our survey!
×
                     HYPOCRISY - ATTACHMENT TO THE ANCESTOR
                        From the Album: OSCULUM OBSCENUM
                        Copyright Nuclear Blast Records
                            Version 1.1 August 2001
                                    Revised!       
  
Transcribed by: James Williams (Inverted)and
                David Williams (Warlock)

For Questions, Comments, Newest Version, or Corrections contact
Inverted: at Inverted_one@hotmail.com

Check Out Death8699.com or Metaltabs.com for More Transcriptions:
http://www.Death8699.com http://www.Metaltabs.com

.  - palm mute           /  - slide up to
\  - slide down to       ~  - vibrato
h  - hammer on           b  - bend
p  - pull off            Suffixes for bend ^
ph - pinched harmonic     f - full bend    h - half bend
*  - see comment          r - release      t - tap bend
X  - Stuccatto            ~ - vibrato bend q - quarter bend
,  - slight palm mute    () - ghost note, sustained note
"  - Tromolo note

ATTACHMENT TO THE ANCESTOR  

Riff 1 - A                                                               Gtr I
|-----------------------------------------------------------------------------|
|-----------------------------------------------------------------------------|
|-----------------------------------------------------------------------------|
|--2-----------------------------------2--------------------------------------|
|--2---------5----------5--------------2---------5---------5--6--------5---3--|
|--0---5--4------5--4------4---3---1---0---5--4------5--4--------5p4---3---1--|
  
Riff 1 - B                                                              Gtr II
|-----------------------------------------------------------------------------|
|-----------------------------------------------------------------------------|
|------------7----------7------------------------7---------7--8---------------|
|--2---7--6------7--6------6-----------2---7--6------7--6--------7p6----------|
|--2-----------------------------------2-------------------------------5---3--|
|--0---------------------------3---1---0-------------------------------3---1--|

  
Fill 1
||-----||
||-----||
||-----||Gtr II
||--2--||
||--2--||
||--0--||
     
*note: For the Interlude play clean with either an acoustic simulator,
       Chorus or hall effect.
              
Interlude      
|----------------|---------------|---------------|---------------|
|----------------|---------------|---------------|---------------|
|----------------|-9-------------|-------------9-|---------------|
|------7---10--9-|-----9---10--7-|-8---10--9-----|-----7-------6-|
|-(0)------------|---------------|---------------|-8-------7-----|
|----------------|---------------|---------------|---------------|
    
|----------------|---------------|---------------|---------------|
|----------------|---------------|---------------|---------------|
|----------------|-----9---------|-------------9-|---------------|Gtr I
|------7---10--9-|-10------9---10|-8---10--9-----|-----7-------6-|
|-(0)------------|---------------|---------------|-8-------7-----|
|----------------|---------------|---------------|---------------|
    
  
Riff 2
|-----------------------------------------------|
|-----------------------------------------------|
|-----------------------------------------------|
|--2----2x-2x-2----2x-2x-3----3x-3x-5----5x-5x--|
|--2----2x-2x-2----2x-2x-3----3x-3x-5----5x-5x--|
|--0----0x-0x-0----0x-0x-1----1x-1x-3----3x-3x--|

|-----------------------------------------------|
|-----------------------------------------------|
|-----------------------------------------------|
|--2----2x-2x-2----2x-2x-4----4x-4x-4----4x-4x--|
|--2----2x-2x-2----2x-2x-4----4x-4x-2----4x-4x--|
|--0----0x-0x-0----0x-0x-2----2x-2x-2----2x-2x--|

 
Note:(On Riffs 3 palm mute strings, using only down strokes.)
  
Riff 3
|------------------------------------------------------------------|
|------------------------------------------------------------------|
|------------------------------------------------------------------|
|--6------4------6------7------------------------------------------|
|--4------2------6------7------2-2-2-2--2-2-2-2--2-2-2-2--2-2-2-2--|
|--4------2------4------5------0-0-0-0--0-0-0-0--0-0-0-0--0-0-0-0--|
                               . . . .  . . . .  . . . .  . . . .
|------------------------------------------------------------------|
|------------------------------------------------------------------|
|------------------------------------------------------------------|
|--6------4------6------7------------------------------------------|
|--4------2------6------7------4-4-4-4--4-4-4-4--4-4-4-4--4-4-4-4--|
|--4------2------4------5------2-2-2-2--2-2-2-2--2-2-2-2--2-2-2-2--|
                               . . . .  . . . .  . . . .  . . . .
|------------------------------------------------------------------|
|------------------------------------------------------------------|
|------------------------------------------------------------------|
|--6------4------6------7------------------------------------------|
|--4------2------6------7------2-2-2-2--2-2-2-2--2-2-2-2--2-2-2-2--|
|--4------2------4------5------0-0-0-0--0-0-0-0--0-0-0-0--0-0-0-0--|
                               . . . .  . . . .  . . . .  . . . .
|------------------------------------------------------------------|
|------------------------------------------------------------------|
|------------------------------------------------------------------|
|--6------4------6------7------------------------------------------|
|--4------2------6------7------4-4-4-4--4-4-4-4--3-3-3-3--3-3-3-3--|
|--4------2------4------5------2-2-2-2--2-2-2-2--1-1-1-1--1-1-1-1--|
                               . . . .  . . . .  . . . .  . . . .
  
Fill 2 (Into Riff 4)
||-----------|------||
||-----------|------||
||-----------|------||
||--3x--3x---|---2--||
||--3x--3x---|---2--||
||--1x--1x---|---0--||
  
Riff 4
|-------------------------------------------------------------|
|-------------------------------------------------------------|
|-------------------------------------------------------------|
|-------------------------------------------------------------|
|-------------------------------------------5555444477776666--|
|--0-000-0-000-7777666655554444-2-222-2-222-------------------|

|-------------------------------------------------------------|
|-------------------------------------------------------------|
|-------------------------------------------------------------|
|-------------------------------------------5555444477776666--|
|-------------------------------2-222-2-222-------------------|
|--0-000-0-000-7777666655554444-------------------------------|
  
Riff 5
|---------------------------------------------------------------|
|---------------------------------------------------------------|
|---------------------------------------------------------------|
|--------------4-----------------------------5---------------3--|
|--2------4----2-----5----4------2------4----3-----5----4----1--|
|--0------2----------3----2------0------2----------3----2-------|
  
Riff 6 
|-----------------------------|
|-----------------------------|
|-----------------------------|
|--4/5-----------------3\4----|
|--2/3---------4/3-----1\2-4--|
|------0-0-0-0-2/1-0-0-----2--|
       . . . .     . .
  
End
||-----||
||-----||
||-----||
||--2--||
||--2--||
||--0--||
  
SONG STRUCTURE:
                                      
Gtr I  Riff (1-A) x 3                |  Gtr I and Gtr II
Gtr II Fill ( 1 ) x 2 Riff (1-B) x 2 |  overlap here.
Gtr I  Interlude  x 2
Gtr II Fill ( 1 ) x 2
Riff ( 2 ) x 2
Riff ( 3 ) x 4
Riff ( 2 ) x 2
Riff ( 3 ) x 4
Gtr I  Riff (1-A) x 2|  Gtr I and Gtr II 
Gtr II Riff (1-B) x 2|  overlap here.
Fill ( 2 ) x 1
Riff ( 4 ) x 2
Riff ( 5 ) x 2
Riff ( 6 ) x 8
Gtr I  Riff (1-A) x 2|  Gtr I and Gtr II
Gtr II Riff (1-B) x 2|  overlap here.
End x 1
  
Check out my other tabs by Hypocrisy, Deicide, Obituary,
Catastrophic, Six Feet Under and Grave.
Suggest correction
What's this?
You can suggest a correction to this tab. Community and Mods will review your correction and vote to approve or reject it.
comments
We did not receive enough feedback on this tab! Please rate:
print report bad tab
1 2 3 4 5
guest
You may want to rate the tab now too:
select rating
Please do not post tabs as comments. Select "correction" instead!