Oops, an error
Loading. Please wait.

Buried Tab

version 1
version 1

Whole song

Interactive

1,081 views 3 this week
no commentswrite comment
1 2 3 4 5
please rate
add to favorites
launch autoscroll
font size
0
reset
how to read this tab
guitar tuner
Tab Pro tools
  • play this tab
  • loop segment
  • change instrument
  • show fretboard
  • metronome
×
Best way to learn
"Buried"
Autoscroll
slow
fast
+/-
esc
set tempo
stop
Hypocrisy-Buried
Tune to C (2 steps down)
Transcribed by Dan  
/=slide up
\=slide down
p=pull off
pm=palm mute

Riff 1:
e----------------------------------------------|
b----------------------------------------------|
g----------------------------------------------|
d----2-2---------2-2--------------2-2----------|
a----2-2--4/5\4--2-2--5/6-/7\6----2-2--4/5/6\5-|
e----0-0--2/3\2--0-0--3/4-/5\4----0-0--2/3/4\3-|
          


e----------------------------------------------|
b----------------------------------------------|
g----------------------------------------------|
d----2222222-----------------------------------|
a----2222222-----------------------------------|
e----0000000-----------------------------------|
   pm.......


Riff 2:
e-----------------------------------------------|
b-----------------------------------------------|
g-----------------------------------------------|
d----8--7--6--5-----------8--7--6--5----2222----|
a----6--5--4--3-----------6--5--4--3----2222----|
e---------------3-0-3-0-----------------0000----|
                 p   p                pm.......



e----------------------------------------------|
b----------------------------------------------|
d----------------------------------------------|
g--8-7-6-5----------2--------------------------|
a--6-5-4-3----------2--4-5-6-7-8---------------|
e----------3-0-3-0--0--2-3-4-5-6---------------|
            p   p

Riff 3:
e----------------------------------------------|
b----------------------------------------------|
g----------------------------------------------|
d----------------------------------------------|
a----9-9-9-9-9--12-12-12-12-12--11-11-11-11-11-|
e----------------------------------------------|
        "your remains of a butchered body"


e----------------------------------------------|
b----------------------------------------------|
g----------------------------------------------|
d----------------------------------------------|
a----7-7-7-7-7-7-7-----------------------------|
e----------------------------------------------|



e-----------------------------------------------|
b-----------------------------------------------|
g-----------------------------------------------|
d-----------------------2-----------------------|
a-----------------------2-----------------------|
e-----------------------0-----------------------|
"another life destroyed" ..............

Riff 4:
e-----------------------------------------------|
b-----------------------------------------------|
g-----------------------------------------------|
d--222-2-22-2-22-2-22---------------------------|
a--222-2-22-2-22-2-22---------------------------|
e--000-0-00-0-00-0-00---------------------------|
 pm...   ..   ..   ..

Riff 5:
e-----------------------------------------------|
b-----------------------------------------------|
g-----------------------------------------------|
d--2-2------2-2-------2-2------2-2222-----------|
a--2-2-4/55-2-2-5/66--2-2-4/55-2-2222-----------|
e--0-0-2/33-0-0-3/44--0-0-2/33-0-0000-----------|
                               pm....

e-----------------------------------------------|
b-----------------------------------------------|
g-----------------------------------------------|
d----8--7--6--5-----------8--7--6--5----2222222-|
a----6--5--4--3-----------6--5--4--3----2222222-|
e---------------3-0-3-0-----------------0000000-|
                 p   p                pm.......

Riff 3 
e----------------------------------------------|
b----------------------------------------------|
g----------------------------------------------|
d----------------------------------------------|
a----9-9-9-9-9--12-12-12-12-12--11-11-11-11-11-|
e----------------------------------------------|
     "leaving the body"


e----------------------------------------------|
b----------------------------------------------|
g----------------------------------------------|
d----------------------------------------------|
a----7-7-7-7-7-7-7-----------------------------|
e----------------------------------------------|



e-----------------------------------------------|
b-----------------------------------------------|
g-----------------------------------------------|
d-----------------------2-----------------------|
a-----------------------2-----------------------|
e-----------------------0-----------------------|
"another life destroyed" ..............
comments
We did not receive enough feedback on this tab! Please rate:
print report bad tab
1 2 3 4 5
I want to post or [tab]
guest
You may want to rate the tab now too:
select rating
Please do not post tabs as comments. Select "correction" instead!