Oops, an error
Loading. Please wait.

Carved Up Tab

version 1
version 1

Whole song

Interactive

555 views 1 this week
no commentswrite comment
1 2 3 4 5
please rate
add to favorites
launch autoscroll
font size
0
reset
how to read this tab
guitar tuner
Tab Pro tools
  • play this tab
  • loop segment
  • change instrument
  • show fretboard
  • metronome
×
Best way to learn
"Carved Up"
Autoscroll
slow
fast
+/-
esc
set tempo
stop
                             HYPOCRISY - CARVED UP
                           From the Album - ABDUCTED
                         Copyright: NUCLEAR BLAST 1997
                          Version 1.0 - Jan 20, 2002

Transcribed By: James Williams (Inverted)

For Questions, Comments, Newest Version, or Corrections contact
Inverted: at Inverted_one@hotmail.com

Check Out Death8699.com, With More Transcriptions On It:
http://www.death8699.com

.  - palm mute           /  - slide up to
\  - slide down to       ~  - vibrato
h  - hammer on           b  - Bend
p  - pull off            Suffixes for bend
t  - tap                 f  - full bend    h - half bend
ph - pinched harmonic    q  - quarter bend t - tap bend
*  - see comment         ^  - Hold bend    r release bend
x  - Stuccatto           ~  - vibrato bend
,  - slight palm mute    () - ghost note, sustained note
"  - tremolo note        <> - Trill

Tuning: "B"E"A"D"G"B"e" 7-String or "B"E"A"D"G"b" 6-String

CARVED UP...

Riff 1
|----------------------------------|----------------------------------|
|----------------------------------|----------------------------------|
|----------------------------------|----------------------------------|
|------10/9--------8\9-------------|-----10/9--------8\9--------------|
|-------8/7--------6\7--------88-7-|------8/7--------6\7--------55-4--|
|--0000-----000000-----000000-66-5-|-0000-----000000-----000000-33-2--|

Riff 2
|-------------------------------|
|-------------------------------|
|-------------------------------|
|--9""----12""----4""----7""----|
|--7""----10""----2""----5""----|
|-------------------------------|

Riff 3
|-------------------------------------|-------------------------------------
--|
|-------------------------------------|-------------------------------------
--|
|-------------------------------------|-------------------------------------
--|
|-----10/9------8\9-----10/9------6-7-|-----10/9------8\9-----10/9--7-6h7p6-
--|
|------8/7------6\7------8/7--7-8-----|------8/7------6\7------8/7----------
8-|
|-0000-----0000-----0000--------------|-0000-----0000-----0000--------------
--|

Riff 4                                                               Gtr I
|------------------------------------|------------------------------------|
|------------------------------------|------------------------------------|
|------------------------------------|------------------------------------|
|--2----4--5---7---5---4---4-4--4-4--|--2----4--5---7---5---4---4-4--4-4--|
|------------------------------------|------------------------------------|
|--0----2--3---5---3---2---2-2--2-2--|--0----2--3---5---3---2---2-2--2-2--|

                                                                    Gtr II
|------------------------------------|------------------------------------|
|------------------------------------|------------------------------------|
|------------------------------------|------------------------------------|
|--2----4--5---7---5---4-------------|--2----4--5---7---5---4-------------|
|------------------------------------|------------------------------------|
|--0----2--3---5---3---2-------------|--0----2--3---5---3---2-------------|


Fill 1 (Let ring)
||------------------||
||------------------||
||------------------||
||--2---------------||
||--2---------------||
||--0---------------||

Riff 5
|--------------------------------|---------------------------------|
|--------------------------------|---------------------------------|
|--------------------------------|---------------------------------|
|--2-------------------------2x--|--2--------------------------2x--|
|--2-------------------------2x--|--2--------------------------2x--|
|--0--000-000-000-000-000000-0x--|--0--000-000--000-000-000000-0x--|
pm    ... ... ... ... ......           ... ...  ... ... ......

Riff 5-A
|--------------------------------|---------------------------------|
|--------------------------------|---------------------------------|
|--------------------------------|---------------------------------|
|--3---2-------2---3-------------|--3---2-------3---2--------------|
|--3---2-------0---1-------------|--3---2-------1---0--------------|
|--1---0-------------------------|--1---0--------------------------|

Riff 5-B
|--------------------------------|---------------------------------|
|--------------------------------|---------------------------------|
|--------------------------------|---------------------------------|
|--3---2-------2---3-------------|--3---2-------3---2-----------ph-|
|--3---2-------0---1-------------|--3---2-------1---0-----------1~-|
|--1---0-------------------------|--1---0--------------------------|

Riff 6 (Solo riff)               x2                                 x2
|----------------------------------|----------------------------------|
|----------------------------------|----------------------------------|
|----------------------------------|----------------------------------|
|----------------------------------|-5-5-5-5-5-5-5-7-4-4-4-4-4-4-4-4--|
|--7-7-7-7-7-7-7-8-5-5-5-5-5-5-5-5-|-3-3-3-3-3-3-3-5-2-2-2-2-2-2-2-2--|
|--5-5-5-5-5-5-5-6-3-3-3-3-3-3-3-3-|----------------------------------|

Solo (Reverb effects)
|---------------------------------------------------------
|------------------12h13~--12h13p12--13-12-13--12---------
|--13~~----13--15----------------------------------15--13-
|---------------------------------------------------------
|---------------------------------------------------------
|---------------------------------------------------------

-------------------------17(17)r-15h17~-(17)///--|
-------------12"-13"-15"----bf-------------------|
-12"-13"-15"-------------------------------------|
-------------------------------------------------|
-------------------------------------------------|
-------------------------------------------------|

Riff 7 (till the end)
|--------------------------------------------------------------|
|--------------------------------------------------------------|
|--------------------------------------------------------------|
|--7-7-7-7-7-7-7-8-11111111-10101010--8-8-8-8-8-8-8-8-8-8-8-8--|
|--5-5-5-5-5-5-5-6--9-9-9-9--8-8-8-8--6-6-6-6-6-6-6-6-6-6-6-6--|
|--------------------------------------------------------------|


Check out my other tabs by Hypocrisy, Grave, Obituary
and Six Feet Under.

Check Out Death8699.com, With More Transcriptions On It:
http://www.death8699.com


_________________________________________________________________
Send and receive Hotmail on your mobile device: http://mobile.msn.com
comments
We did not receive enough feedback on this tab! Please rate:
print report bad tab
1 2 3 4 5
I want to post or [tab]
guest
You may want to rate the tab now too:
select rating
Please do not post tabs as comments. Select "correction" instead!