Oops, an error
Loading. Please wait.

Departure Tab

804 views 1 this week
1 commentread comment
1 2 3 4 5
accurate
x 4
add to favorites
launch autoscroll
font size
0
reset
how to read this tab
guitar tuner
Tab Pro tools
  • play this tab
  • loop segment
  • change instrument
  • show fretboard
  • metronome
×
Best way to learn
"Departure"
Autoscroll
slow
fast
+/-
esc
set tempo
stop
Contributor
Difficulty
novice
+--------------------------------------------------------------------------+
| This file is the author's own work and represents their interpretation   |
| of the song. You may only use this file for private study, scholarship,  |
| or research.                                                             |
+--------------------------------------------------------------------------+

Artist: Hypocrisy - The Departure
Album: The Arrival (2004)
Tuning: EADGBe (Standard)
Tabbed by: Kasper K.

I never found a tab for this song, so i decided to make one myself.
I only tabbed this out for one guitar.
Hope you like it.

Look at bottom to see in which order to play the song.
Listen to the song for the rhythm.

\ = slide down
/ = slide up
~ = let ring
h = hammer on
b = bend


RIFF 1:
e|----------------------------------------|
B|----------------------------------------|
G|----------------------------------------|
D|-0h22-----0h22/99~--0h22-----0h22/99--7-|
A|----------------------------------------|
E|------00~----------------00~------------|
Play this x3 times

Riff 2:
e|----------------------------------------|
B|----------------------------------------|
G|----------------------------------------|
D|----14-12----14-15----14-12---14-15-----|
A|-12-------12--------8-------8-----------|
E|----------------------------------------|
Play this x1 times

Riff 3:
e|----------------------------------------------|
B|----------------------------------------------|
G|----------------------------------------------|
D|----------------------------------------------|
A|-9-10-9-5-4-5-4----------------------------12-|
E|----------------7-5-10-12-14-12-10-14-10-9----|
(Trem pick this riff)
Play this x2 times

Riff 4:
e|----------------------------------------|
B|----------------------------------------|
G|-------------------9-7-5-4-2------------|
D|-2~-/10-9-7-5-4/9~----------------------|
A|----------------------------------------|
E|----------------------------------------|
Play this x3 times

Solo riff:
e|---------------------------------------------|
B|---------------------------------------------|
G|-16-------16-14h16-14------------------------|
D|----16-12-------------16-14--11-12-14-16-11b-|
A|---------------------------------------------|
E|---------------------------------------------|

e|---------------------------------------------|
B|-----------------15-14-15-17-19-17b----------|
G|-16--------16-16-----------------------------|
D|----16-12------------------------------------|
A|---------------------------------------------|
E|---------------------------------------------|

End riff:
e|----|
B|----|
G|----|
D|-2~-|
A|-2~-|
E|-0~-|

(Clean)
e|-----------------------------------------------|
B|-----0-----0-----0-----0-----0-------0-------0-|
G|---0-----0-----0-----0-----5---0---5---0---0---|
D|-2-----2-----2-----2-----7-------3-------3-----|
A|-----------------------------------------------|
E|-----------------------------------------------|
Play this x4 times


+----------------------+
Order to play the song:

1: Riff 1
2: Riff 2
3: Riff 3
4: Riff 4
5: Riff 1
6: Riff 2
7: Riff 3
8: Solo riff
9: Riff 4
10: Riff 3 (Play twice)
11: End riff
+----------------------+
comments
print report bad tab
1 comment total.
0 reply
Damage Inc. 878 wrote on November 10 2010, 04:28 pm

99th fret??? what???

I want to post or [tab]
guest
You may want to rate the tab now too:
select rating
Please do not post tabs as comments. Select "correction" instead!