Oops, an error
Loading. Please wait.

Eraser Bass Tab

version 1
version 1

Whole song

2,880 views 3 this week
no commentswrite comment
1 2 3 4 5
please rate
add to favorites
launch autoscroll
font size
0
reset
guitar tuner
Autoscroll
slow
fast
+/-
esc
set tempo
stop
Help us to improve Ultimate-Guitar.com Take our survey!
×
Eraser-Hypocrisy

Intro
|-----------------------------------------------|
|-----------------------------------------------|
|---2---4-5--2---4-5-4-5-1----------------------|
|-----2--------2--------------------------------|


After Intro
|------------------------------------------------------------------|
|------------------------------------------------------------------|
|---2---4-5--2---4-5-4-5-------------------------------------------|
|-----2--------2----------55--33--1------1-----55--33--------------|


Pre-Verse
|------------------------------------------------------|
|------------------------------------------------------|
|------------------------------------------------------|
|--111111111-454--111111111-676------------------------|


Verse
|-----------------------------------------------------|
|-----------------------------------------------------|
|-----------------------------------------------------|
|--111111111-3333-111111111-5-2-----------------------|


Pre-Chorus/solo
|--------------------------------------------------------------|
|--------------------------------------------------------------|
|-------------------------44--44--33--22--22--00---------------|
|---55--55--5--33--33--2---------------------------------------|


Chorus
|---------------------------------------------------------------------|
|---------------------------------------------------------------------|
|---------------------------------------------------------------------|
|--6666--3333--6666--2222--6666--3333--6666--1111---------------------|


Order
------------
Intro x 3
After intro x 1
Pre-verse x 2
Verse x 2
Pre-chorus x 2
Chorus x 2
Pre-verse x 1
Verse x 2
Pre-chorus x 2
Chorus x 2
Solo x 2
Chorus x 4
Suggest correction
What's this?
You can suggest a correction to this tab. Community and Mods will review your correction and vote to approve or reject it.
comments
We did not receive enough feedback on this tab! Please rate:
print report bad tab
1 2 3 4 5
guest
You may want to rate the tab now too:
select rating
Please do not post tabs as comments. Select "correction" instead!